Anti-flag - New Kind Of Army Chords & Tabs

 

New Kind Of Army Chords & Tabs

Anti-flag Chords & Tabs

Version: 1 Type: Tab 0 ratings
1 star 2 stars 3 stars 4 stars 5 stars
comments

New Kind Of Army Tab

Anti-Flag - New Kind of Army

  intro:   
e|--------------------------------------------------------------------|
b|--------------------------------------------------------------------|
g|--6---------9-------------------------------------------------------|
d|--6----7----9----9--------------------------------------------------|
a|--4----7----7----6----x2--------------------------------------------|
e|-------5------------------------------------------------------------|
         strum each one time
[ Tab from: http://www.guitartabs.cc/tabs/a/anti_flag/new_kind_of_army_tab.html ]
  verse 1:
e|--------------------------------------------------------------------|
b|--------------------------------------------------------------------|
g|--66666666------------99999999--------------------------------------|
d|--66666666--77777777--99999999--99999999----------------------------|
a|--44444444--77777777--77777777--66666666--x2------------------------|
e|------------55555555------------------------------------------------|
   -----palm mute-----  don't p.m. on 1 and 4 then 1 and 3

  verse 2:
e|--------------------------------------------------------------------|
b|-----------------------------------------------lead for same part---|
g|--6-6-6-66------------9-9-9-99-------------------9-8-6---9-8-6------|
d|--6-6-6-66--7-7-7-77--9-9-9-99--9-9-9-99-------7-------5------------|
a|--4-4-4-44--7-7-7-77--7-7-7-77--6-6-6-66--x2------------------------|
e|------------5-5-5-55------------------------------------------------|
 "1...2...1..2..3..4"

order of song: 
intro
verse 1
verse 2 
play verse 1:"Look back..." 
verse 2 
verse 1 x2
presolo hit first chord once and let it ring 
verse 1 x8 verse 2 x4
hit first chord twice and let it ring again
intro like thing:"We are looking..."
verse 2 without 
verse 2  untill end
Comments