Anti-flag - Mummias Song Chords & Tabs

 

Mummias Song Chords & Tabs

Anti-flag Chords & Tabs

Version: 1 Type: Bass Tab 0 ratings
1 star 2 stars 3 stars 4 stars 5 stars
comments

Mummias Song Bass Tab

this is absolutley accurate. figure out how many times to do each part yourselfs
you lazy asses!!!!

intro


g----------------------------|
d----------------------------|        2 times
a--------4-22-4--------------|
e-6----2--------4-4-66-44-33-|

part 1

g---------------------------|
d----88-66------------------|    play the intro piece after(without the 6)
a----------88-99-88-66-44---|
e-66------------------------|

part 2

g--------------------------|
d--------------------------|    play intro piece after(without the 6)
a----88-99-88-99-88-66-88--|
e-66-----------------------|

chorus
[ Tab from: http://www.guitartabs.cc/tabs/a/anti_flag/mummias_song_btab.html ]
g-------------------------------|
d--------------66-44-33---------|       play intro piece after(without the 6)
a---8-99-8-4-4------------------|
e-6-----------------------------|        you gotta be groovy with this chorus guys!!
                                                   feel the rhythem, feel the flow :0

other part

g---------------------------------------------------------|
d-------------88-66------   again, play the intro - the 6-|
a----99-88-66-------99-8----------------------------------|
e-66------------------------------------------------------|


thats all the pieces of the song. you put them together
all the stuff through the chorus is all in order from the very beginning
figure it out from there. i am the anti-flag tab master!! i know you know you love this tab
check out my other AF tab for bass,BRING OUT YOUR DEAD!!! its VERSION 3 that is my favorite
AF song ever . SEE YA LATER BOTCHES!!!!!!!!!!!
Comments