Anti-flag - Mind The Gatt Chords & Tabs

 

Mind The Gatt Chords & Tabs

Anti-flag Chords & Tabs

Version: 1 Type: Tab 0 ratings
1 star 2 stars 3 stars 4 stars 5 stars
comments

Mind The Gatt Tab

                                  MIND THE GATT
                            As recorded by Anti-Flag
                     (From the 2003 Album THE TERROR STATE)

Music by Anti-Flag
Transcribed by D.K. Unger



Intro
  PM--|         PM  PM|         PM--|         PM--|           PM--|
|----------------------------------------------------------------------|
|-------7-x-x-7---7-----7-x-x-7-------7-x-x-7-------7-7-x-x-7-------7/-|
|-------7-x-x-7---7-----7-x-x-7-------7-x-x-7-------7-7-x-x-7-------7/-| 
|-5-5-5---------5---5-5---------5-5-5---------5-5-5-----------5-5-5----| figure out the order
|-5-5-5---------5---5-5---------5-5-5---------5-5-5-----------5-5-5----|on this yourself please.
|-3-3-3---------3---3-3---------3-3-3---------3-3-3-----------3-3-3----|


Pre-verse
  PM----------|                Verse
|--------------------------|---------------------------------------------|
|--------------------------|---------------------------------------------|
|-7-7-7-7-7-7-7-9-9-9-9-9-9|--9-9-9-9-9--9-9-9-9-9--9-9-9-9-9--9-9-9-9-9-|
|-7-7-7-7-7-7-7-x-x-x-x-x-x|--9-9-9-9-9--9-9-9-9-9--9-9-9-9-9--9-9-9-9-9-| X6
|-5-5-5-5-5-5-5-7-7-7-7-7-7|--7-7-7-7-9--7-7-7-7-9--7-7-7-7-9--7-7-7-7-9-|
|--------------------------|---------------------------------------------|

Verse continued
|-----|----------------------------------------------------------|
|-----|----------------------------------------------------------|
|-----|--9-9-9-9-9--9-9-9-9-9--9-9-9-9-9--9-9-9-9-9--9-9-9-9-9---|
|-7--9|--9-9-9-9-9--9-9-9-9-9--9-9-9-9-9--9-9-9-9-9--9-9-9-9-9---| X6
|-7--9|--7-7-7-7-9--7-7-7-7-9--7-7-7-7-9--7-7-7-7-9--7-7-7-7-9---|
|-5--7|----------------------------------------------------------|
   
  ^hold these 2 notes
                            PM---------------------------------|
Pre-Chorus
|-----|--------------------|--------------------------------------|
|-----|--------------------|--------------------------------------|
|----9|----------9-9---9-9-|--------------------------------------|
|-7--9|--5--7--7-9-9-9-9-9-|--5-5-5-5-5-5-5-5-4-4-4-4-4-4-4-3-3-3-|
|-7--7|--5--7--7-7-7-9-7-7-|--5-5-5-5-5-5-5-5-4-4-4-4-4-4-4-3-3-3-|
|-5---|--3--5--5-----7-----|--3-3-3-3-3-3-3-3-2-2-2-2-2-2-2-1-1-1-|
 ^ Hold all these notes ^
[ Tab from: http://www.guitartabs.cc/tabs/a/anti_flag/mind_the_gatt_tab.html ]
  PM----------------------|    Chorus                    
|---------------------------|--3-3-3-3-1-1-1-1-1-3-3-3-3--1-----|
|---------------------------|--5-5-5-5-3-3-3-3-3-5-5-5-5--3-----|
|---------------------------|--5-5-5-5-3-3-3-3-3-5-5-5-5--3-----|
|-3-3-3-3-3-2-2-2-2-2-2-2-2-|--4-4-4-4-2-2-2-2-2-4-4-4-4--2-----|
|-3-3-3-3-3-2-2-2-2-2-2-2-2-|--3-3-3-3-1-1-1-1-1-3-3-3-3--1-----|
|-1-1-1-1-1-0-0-0-0-0-0-0-0-|-----------------------------------|
repeat the palm muting
on second time play the 220 moved down one string

|-3-3-3-3--1-1-1-1-1--3-3-3-3--1-1-1-1-1--3-3-3-3--1-1-1-1-1--1--|
|-5-5-5-5--3-3-3-3-3--5-5-5-5--3-3-3-3-3--5-5-5-5--3-3-3-3-3--3--|
|-5-5-5-5--3-3-3-3-3--5-5-5-5--3-3-3-3-3--5-5-5-5--3-3-3-3-3--3--|
|-4-4-4-4--2-2-2-2-2--4-4-4-4--2-2-2-2-2--4-4-4-4--2-2-2-2-2--2--|
|-3-3-3-3--1-1-1-1-1--3-3-3-3--1-1-1-1-1--3-3-3-3--1-1-1-1-1--1--|
|----------------------------------------------------------------|


|---------|
|---------|
|---------|
|-7--9----|
|-7--9----|
|-5--7----|

Pre-Chorus
(palm muting)

Bass Solo

G|--------------------------------|
D|--------------------------------|
A|-44--------------44----------77-| x2
E|-----9/5-55-00-------9/5-55-----|


Chorus (this time play at a faster tempo with different chord changes, listen closely)
       (still same chords though)

Outro

|------------7h8-8-(8)-<7>-----|
|------------------------------|
|------9-----------------------|
|--7---9---7-------------------|
|--7---7---7-------------------|
|--5-------5-------------------|
 
  ^hold these chords^


Tablature Legend
----------------
 h   - hammer-on
 p   - pull-off
 b   - bend
 pb  - pre-bend
 r   - bend release (if no number after the r, then release immediately)
 /\  - slide into or out of (from/to "nowhere")
 s   - legato slide
 S   - shift slide
  - natural harmonic
[n]  - artificial harmonic
n(n) - tapped harmonic
 ~   - vibrato
 tr  - trill
 T   - tap
 TP  - trem. picking
 PM  - palm muting
\n/  - tremolo bar dip; n = amount to dip
 \n  - tremolo bar down
 n/  - tremolo bar up
/n\  - tremolo bar inverted dip
 =   - hold bend; also acts as connecting device for hammers/pulls
 <>  - volume swell (louder/softer)
 x   - on rhythm slash represents muted slash
 o   - on rhythm slash represents single note slash
Comments