Anti-flag - Id Tell You But Chords & Tabs

 

Id Tell You But Chords & Tabs

Anti-flag Chords & Tabs

Version: 1 Type: Bass Tab

Id Tell You But Bass Tab

   
first song off their new album For Blood And Empire!

Intro:

G|----------------------------------------------------------------|
D|----------------------------------------------------------------|
A|----------------------------------------------------------------|x2
E|-9-9-9-9-9-9-9-9-0-0-0-0-0-0-0-0-5-5-5-5-5-5-5-5-0-0-0-0-7-7-7-7|

Verse:

G|-----------------------------------------------------------------------|
D|-----------------------------------------------------------------------|
A|---11-11---11-11---11-11---11-11---7-6-7-6---6---7-7---7-7---7-7---7-7-|
E|-9-------9-------9-------9-------0---------7---5-----5-----5-----5-----|

G|----------------|
D|-------4--------|
A|--7-7----7-6-7-4|x2
E|7----7----------|

Pre-Chorus:

G|--------------------------|
D|--------------------------|
A|--------------------------|
E|-5-5-5-5-5-5-9-9-7-7-7-7-7|

Chorus:

G|----------------------------------------------------------------|
D|----------------------------------------------------------------|
A|----------------------------------------------------------------|x2
E|-9-9-9-9-9-9-9-9-0-0-0-0-0-0-0-0-5-5-5-5-5-5-5-5-7-7-7-7-7-7-7-7|

G|------------------------------------------------------|
D|---------------9---------------6-----------4---4-6-4--|
A|---11-12-11-12---12-11-7-9-7-9---9-7-6---7---7-------7|
E|-9-------------------------------------5--------------|

During Guitar Solo:

G|----------------------------------------------------------------|
D|----------------------------------------------------------------|
A|----------------------------------------------------------------|x2
E|-9-9-9-9-9-9-9-9-0-0-0-0-0-0-0-0-5-5-5-5-5-5-5-5-0-0-0-0-7-7-7-7|
[ Tab from: http://www.guitartabs.cc/tabs/a/anti_flag/id_tell_you_but_btab.html ]
Verse:

G|-----------------------------------------------------------------------|
D|-----------------------------------------------------------------------|
A|---11-11---11-11---11-11---11-11---7-6-7-6---6---7-7---7-7---7-7---7-7-|
E|-9-------9-------9-------9-------0---------7---5-----5-----5-----5-----|

G|----------------|
D|-------4--------|
A|--7-7----7-6-7-4|x2
E|7----7----------|

Pre-Chorus:

G|--------------------------------|
D|--------------------------------|
A|--------------------------------|
E|-5-5-5-5-5-5-5-5-7-7-7-7-7-7-7-7|

Chorus:

G|----------------------------------------------------------------|
D|----------------------------------------------------------------|
A|----------------------------------------------------------------|x2
E|-9-9-9-9-9-9-9-9-0-0-0-0-0-0-0-0-5-5-5-5-5-5-5-5-7-7-7-7-7-7-7-7|

G|---------------------------------------------------------------|
D|---------------9---------------6-----------4---4-6-4-----------|
A|---11-12-11-12---12-11-7-9-7-9---9-7-6---7---7-------7---11-11-|
E|-9-------------------------------------5---------------9-------|

G|-----------------------------------------------------------------|
D|------------------------------9---------------6-----------4---4--|
A|--11-11-7-6---6---11-12-11-12---12-11-7-9-7-9---9-7-6---7---7----|
E|9-----------9---9-------------------------------------5----------|

G|------|
D|6-4---|
A|----7-|
E|------|


Outro:

G|----------------------------------------------------------------|
D|----------------------------------------------------------------|
A|----------------------------------------------------------------|
E|-9-9-9-9-9-9-9-9-0-0-0-0-0-0-0-0-5-5-5-5-5-5-5-5-0-0-0-0-7-7-7-7|