Anti-flag - Hymn For The Dead Chords & Tabs

 

Hymn For The Dead Chords & Tabs

Anti-flag Chords & Tabs

Version: 1 Type: Tab

Hymn For The Dead Tab

e|--------------------------------------------------------------|
B|3-3-2-3-3-2-3-3-2-3-3-2-3-2-----3-3-2-3-3-2-3-3-2-3-3-2-3-2-5-|
G|----------------------------4-2-------------------------------|
D|--------------------------------------------------------------|
A|--------------------------------------------------------------|
E|--------------------------------------------------------------|

e|-------------------------------------------------------------|
B|3-3-2-3-3-2-3-3-2-3-3-2-3-2-----3-3-2-3-3-2-3-2--------------|
G|----------------------------4-2-----------------2~-----------|
D|-------------------------------------------------------------|
A|-------------------------------------------------------------|
E|-------------------------------------------------------------|
[ Tab from: http://www.guitartabs.cc/tabs/a/anti_flag/hymn_for_the_dead_tab.html ]