Anti-flag - Hymn For The Dead Chords & Tabs

 

Hymn For The Dead Chords & Tabs

Anti-flag Chords & Tabs

Version: 1 Type: Bass Tab

Hymn For The Dead Bass Tab

Hymn For The Dead - Anti-Flag

Track 5 on For Blood and Empire!

Intro:

G|---------------------------------------------------------------------------|
D|---------------------------------------------------------------------------|
A|-------------9-10-10-10-10-10-10-9-10-10-10-10-10-10-9-10-9-------------12-|x2
E|-7-7-7-7-7-7------------------------------------------------10-10-10-10----|

Verse:

G|-------------------------------------7-6-4---|
D|-------------------------5-5-5-5-----------7-|
A|-------5-----------5-------------5-5---------|x2
E|-7-7-7---7-5-7-7-7---7-5---------------------|


E|---------------------------------------------------------------|
D|---------------------------------------------------------------|
A|-----------------------5-----------5---------------------------|
E|-3-3-2-2-3-3-2-2-7-7-7---7-5-7-7-7---7-5-3-3-2-2-3-3-2-2-5--5--|

Chorus:

G|---------------------------------------------------------------------------|
D|---------------------------------------------------------------------------|
A|-------------9-10-10-10-10-10-10-9-10-10-10-10-10-10-9-10-9-------------12-|x2
E|-7-7-7-7-7-7------------------------------------------------10-10-10-10----|


Verse:

G|-------------------------------------7-6-4---|
D|-------------------------5-5-5-5-----------7-|
A|-------5-----------5-------------5-5---------|x2
E|-7-7-7---7-5-7-7-7---7-5---------------------|


E|---------------------------------------------------------------|
D|---------------------------------------------------------------|
A|-----------------------5-----------5---------------------------|
E|-3-3-2-2-3-3-2-2-7-7-7---7-5-7-7-7---7-5-3-3-2-2-3-3-2-2-5--5--|

Chorus:
[ Tab from: http://www.guitartabs.cc/tabs/a/anti_flag/hymn_for_the_dead_btab.html ]
G|---------------------------------------------------------------------------|
D|---------------------------------------------------------------------------|
A|-------------9-10-10-10-10-10-10-9-10-10-10-10-10-10-9-10-9-------------12-|x2
E|-7-7-7-7-7-7------------------------------------------------10-10-10-10----|

Bridge:

G|----------------------------------------------------------------|
D|-------------------------2---------------2----------------------|
A|-----------------2-5-4-5---5-4-5-2-5-4-5---5-4-5----------------|
E|-3-3-3-3-3-3-5-5---------------------------------3-3-3-3-5-5-5-5|

G|---------------------------------------------------------------------------|
D|---------------------------------------------------------------------------|
A|2-----5-----2-2-2-2---------5-5-5-5---------2-2-2-2---------5-5-5-5--------|
E|---5-----5----------3-3-3-3---------5-5-5-5---------3-3-3-3---------5-5-5-5|

G|----------------------------------|
D|------------------------4-5-7-7-7-|
A|2-2-2-2---------5-5-5-5-----------|x4
E|--------3-3-3-3-------------------|

Chorus/Outro:

G|---------------------------------------------------------------------------|
D|---------------------------------------------------------------------------|
A|-------------9-10-10-10-10-10-10-9-10-10-10-10-10-10-9-10-9-------------12-|x2
E|-7-7-7-7-7-7------------------------------------------------10-10-10-10----|

G|---------------------------------------------|
D|---9---9----9----9----12----12----11-12p11---|
A|---------10---10---10----10----12----------12|x2
E|-7---7---------------------------------------|

G|--------------------------------------------------------------------|
D|---9--9-9-------9--9-9-------12-------12-------11----12-11----11--9-|
A|----------10-10--------10-10----10-10----12-12----12-------12-12--x-|
E|-7----------------------------------------------------------------7-|