Anti Flag - Got The Numbers Chords & Tabs

 

Got The Numbers Chords & Tabs

Anti Flag Chords & Tabs

Version: 1 Type: Chords 0 ratings
1 star 2 stars 3 stars 4 stars 5 stars
comments

Got The Numbers Chords

   
Band: Anti-Flag
Song: Got the Numbers
Album: A New Kind of Army
Tabber: clark@theoddmenout.com

*= mute note
!= artificial harmonic (scream)

Intro:                                 Lead-in x1
e--------------------------------------------------|
B--------------------------------------------------|
G---------------6----------------------pick-slide--|
D--6~----6~---4!-----6~---6x6x6-6-6~---------------|
A--6~----6~----------6~---6x6x6-6-6~---------------|
E--4~----4~----------4~---4x4x4-4-4~---------------|

Riff 1:               x4
e-----7-4--------7-4----|
B---------4----------4--|
G-----------4-4---------|
D--6--------------------|
A-----------------------|
E-----------------------|

Verse 1:
    G#*                     B
You push and push a people, what are they to do? 
     G#*                      B
This corporate run government will be through you 
        G#*                   B
See, it doesn't represent the people anymore 
    G#*                        B
Big business are the pimps and governments' their whores 

Pre-Chorus:
E
We don't need more time to talk over a solution, 
F#
We know what we need, we need a ****ing revolution
[ Tab from: http://www.guitartabs.cc/tabs/a/anti_flag/got_the_numbers_crd.html ]
Chorus:
B        C#        G#  F#  E
We don't need your war machine, 
        B      C#            G#
Or your filthy blood stained dollars 
      B       C#         G#  F#    E
We've got one thing that you ain't got, 
      B          C#  
We've got, we've got, We've-
G#               B
Got the numbers! Got the Numbers! x4

Riff 1 x4

Verse 2:
   G#*                    B
To you the masses are not even human beings 
      G#*                            B
We're dogs that will be grateful for any scraps you leave 
    G#*                       B
But even dogs will only put up with so much abuse 
     G#*                                  B
Keep stealing from us like you are, we're gonna let loose 

Pre-Chorus

Chorus x1

Intro Lead-in x1

Bridge:
e-------7-7--4-4-----------7-7-4-4------|
B----------------4-4---------------4-4--|
G---------------------4-4---------------| x3, once un-muted
D--6-6----------------------------------|
A---------------------------------------|
E---------------------------------------|
   * *  * *  * * * *  * *  * * * * * *
WE   GOT!   WE   HAVE...

Pre-Chorus

Outro Chorus:
B        C#        G#  F#  E
We don't need your war machine, 
        B      C#            G#
Or your filthy blood stained dollars 
      B       C#         G#  F#    E
We've got one thing that you ain't got, 
      B          C#      G#
We've got, we've got the numbers

Chorus x1

Riff 1 x4

Bridge Riff x3 (un-muted)

e-----------------|
B-----------------|
G--4-4--6-6-------|
D--4-4--6-6--6----|
A--2-2--4-4--6----|
E------------4----|

That's it! For suggestions, corrections, and requests, email me:
                        oddmenout4@yahoo.con
Comments