Anti Flag - Fuck Police Brutality Chords & Tabs

 

Fuck Police Brutality Chords & Tabs

Anti Flag Chords & Tabs

Version: 1 Type: Bass Tab 0 ratings
1 star 2 stars 3 stars 4 stars 5 stars
comments

Fuck Police Brutality Bass Tab

Anti-Flag
Fuck Police Brutality
Tabbed by: intense@westol.com

this is tabbed in normal antiflag tuning (half step down). if you're
regular tuning, just play everything one fret lower than what it says
on this tab

Intro/Verse:
Gb-------------5-5-5-4-4-2-2-------------5-5-5-4-4-2-2-
Db-2-2-2-2-2-2---------------2-2-2-2-2-2---------------
Ab-----------------------------------------------------
Eb-----------------------------------------------------


Gb-------------5-5-5-4-4-2-2-----------------
Db-0-0-0-0-0-0-------------------------0---0-
Ab---------------------------3-3-3-3-3---3---
Eb-------------------------------------------
[ Tab from: http://www.guitartabs.cc/tabs/a/anti_flag/fuck_police_brutality_btab.html ]
Chorus:
Gb---------------------------7---7-9-
Db---------5-5-5-5-7-7-7-7-9---9-----
Ab-7-7-7-7---------------------------
Eb-----------------------------------

Bridge Part 1:
Gb-------------5-5-5-4-4-2-2-0-0-0-0-0-0-5-5-5-4-4-2-2-
Db-2-2-2-2-2-2-----------------------------------------
Ab-----------------------------------------------------
Eb-----------------------------------------------------

Gb-------------5-5-5-4-4-2-2-----------------
Db-0-0-0-0-0-0-------------------------0---0-
Ab---------------------------3-3-3-3-3---3---
Eb-------------------------------------------


Bridge Part 2:
Gb-------0-0-0-2-2-2-------------0-0-0-2-2-2-4-4-4-
Db-2-2-2-------------------2-2-2-------------------
Ab-------------------3-3-3-------------------------
Eb-------------------------------------------------
Comments