Anti-flag - Free Nation Chords & Tabs

 

Free Nation Chords & Tabs

Anti-flag Chords & Tabs

Version: 1 Type: Tab 0 ratings
1 star 2 stars 3 stars 4 stars 5 stars
comments

Free Nation Tab

Artist: Anti-Flag
Album: A New Kind of Army
Song : Free Nation?
Tabbed By: JustnHav

///- slide 
p- palm mute 

Intro 
e|-/-/-/---------------------------------------------------------------------| 
B|-/-/-/---------------------------------------------------------------------| 
G|-/-/-/-------10-8-7--------------------------------------------------------| 
D|-/-/-/---8-8--*-*-*-1010101010101010---------------------------------------| 
A|-/-/-/---*-*--8-6-5-1010101010101010---------------------------------------| 
E|-/-/-/---6-6---------8-8-8-8-8-8-8-8---------------------------------------| 

Verse 
e|---------------------------------------| 
B|---------------------------------------| 
G|-------10-8-7--------------------------| 
D|---8-8--*-*-*-1010101010101010---------| 
A|---*-*--8-6-5-1010101010101010---------| 
E|---6-6---------8-8-8-8-8-8-8-8---------| 

Chorous 
e|---------------------------------------------------------------------------| 
B|---------------------------------------------------------------------------| 
G|-8-8-8-8-------------------------------------------------------------------| 
D|-8-8-8-8-8-8-8-8-1010-1010-1010-1010---------------------------------------| 
A|-6-6-6-6-8-8-8-8-1010-1010-1010-1010---------------------------------------| 
E|---------6-6-6-6--8-8--8-8--8-8--8-8---------------------------------------| 

Solo 
e|---------------------------------------------------------------------------| 
B|---------------------------------------------------------------------------| 
G|---------------------------------------------------------------------------| 
D|-5--5-6--------5-6------5-6------------------------------------------------| 
A|-3--------8-8------6-6------6-6-6-6----------------------------------------| 
E|----------6-6------4-4------4-4-4-4----------------------------------------| 
[ Tab from: http://www.guitartabs.cc/tabs/a/anti_flag/free_nation_tab.html ]
e|---------------------------------------------------------------------------| 
B|---------------------------------------------------------------------------| 
G|-----------------------------------------5-5-5-5--7-7-7-7--8-8-8-8---------| 
D|--5-5-5-5--------------------------------*-*-*-*--*-*-*-*--*-*-*-*---------| 
A|--3-3-3-3--8-8-8-8--6-6-6-6-6-6-6--------3-3-3-3--5-5-5-5--6-6-6-6---------| 
E|-----------6-6-6-6--4-4-4-4-4-4-4------------------------------------------| 

Outro 
e|---------------------------------------------------------------------------| 
B|---------------------------------------------------------------------------| 
G|--------8-8-8-8------------------------------------------------------------| 
D|-/-/-/--8-8-8-8-8-8-8-8-1010--1010--1010--1010-----------------------------| 
A|-/-/-/--6-6-6-6-8-8-8-8-1010--1010--1010--1010-----------------------------| 
E|-/-/-/----------6-6-6-6--8-8---8-8---8-8---8-8-----------------------------| 

e|---------------------------------------------------------------------------| 
B|---------------------------------------------------------------------------| 
G|-8-8-8-8-----------8-8-8---8-8-8-------------------------------------------| 
D|-8-8-8-8-8-8-8-8---8-8-8---8-8-8-------------------------------------------| 
A|-6-6-6-6-8-8-8-8---6-6-6---6-6-6-------------------------------------------| 
E|---------6-6-6-6-----------------------------------------------------------| 
p p p p 
play this till the end 
e|---------------------------------------------------------------------------| 
B|---------------------------------------------------------------------------| 
G|-------------------8-8-8--8-8-8--------------------------------------------| 
D|-8-8-8-8-10101010--8-8-8--8-8-8--------------------------------------------| 
A|-8-8-8-8-10101010--6-6-6--6-6-6--------------------------------------------| 
E|-6-6-6-6--8-8-8-8----------------------------------------------------------| 
p p p p
Comments