Anti-flag - Freaks Nerds And Romantics Chords & Tabs

 

Freaks Nerds And Romantics Chords & Tabs

Anti-flag Chords & Tabs

Version: 1 Type: Bass Tab 0 ratings
1 star 2 stars 3 stars 4 stars 5 stars
comments

Freaks Nerds And Romantics Bass Tab

   
-----------------------------------------------------------------------------
     THE FREAKS, NERDS AND ROMANTICS - Anti-flag (bouncing souls cover)
-----------------------------------------------------------------------------

Tabbed By : Jero 
e-mail: Doubleyouzeroareasstea@hotmail.com


This song is a bouncing souls cover, but the A-F version has
huge difference in the basstabs. So here's how to play it :)

 Intro

G|---------------5---6--| 2x  
D|-----3--4--6-6---6----|     
A|4---------------------|     
E|----------------------|     

G|11----10--6----5-----5--6----| G|-----------------------------|
D|------------------6----------| D|4-----3----------------------|
A|-----------------------------| A|----------4----3-----3--4----|
E|-----------------------------| E|------------------4----------|

 Pre Verse

G|-----------------|
D|-----------------|
A|-----------------|
E|2224-4-4-24-4-4-4|

 Verse

G|----------------------------|   G|-56-8-65|   
D|-----------------4446--6-6-6|   D|--------|   
A|44-4--44-4-44-4-------------|   A|--------|   
E|----------------------------|   E|--------|   

G|----------------------------|   G|8--6-5--|
D|-----------------4446--6-6-6|   D|-------6|
A|44-4--44-4-44-4-------------|   A|--------|
E|----------------------------|   E|--------|

 Chorus
[ Tab from: http://www.guitartabs.cc/tabs/a/anti_flag/freaks_nerds_and_romantics_btab.html ]
G|----------------| 4x G|----------------| 4x  
D|----4444--------|    D|4443------------|
A|4444------334444|    A|----4444--334444|
E|--------44------|    E|--------44------|

 Pre Verse

G|-----------------|
D|-----------------|
A|-----------------|
E|2224-4-4-24-4-4-4|

 Verse

G|----------------------------|   G|-56-8-65|   
D|-----------------4446--6-6-6|   D|--------|   
A|44-4--44-4-44-4-------------|   A|--------|   
E|----------------------------|   E|--------|   

G|----------------------------|   G|8--6-5--|
D|-----------------4446--6-6-6|   D|-------6|
A|44-4--44-4-44-4-------------|   A|--------|
E|----------------------------|   E|--------|

 Bridge

G|----------------------------| 4x  
D|------6-4-3-0---------------|   
A|4-------------4-----34-6-43-|   
E|----------------------------|   

 Chorus

G|----------------| 4x G|----------------| 4x  
D|----4444--------|    D|4443------------|
A|4444------334444|    A|----4444--334444|
E|--------44------|    E|--------44------|

 That I realize that somehow........

G|----------------| 4x
D|4-44------------|
A|----4444----4444|
E|--------4444----|

 Outro

G|-43-------------| 4x  
D|6--6-43------32-|   
A|----4--4-43-3--3|   
E|--------4--4----| 

 Last note

 We don't give a shit about what they say!
G|--------|
D|--------|
A|4-------|
E|--------|

That's it =D the outro may be a little off 
but this song is really fun to play. Not too
hard and it sounds great. Corrections are 
welcome, though. Mail me @ doubleyouzeroareasstea@hotmail.com
Grtz Jero
Comments