Anti-flag - Exodus Chords & Tabs

 

Exodus Chords & Tabs

Anti-flag Chords & Tabs

Version: 1 Type: Bass Tab

Exodus Bass Tab

Exodus - Anti-Flag


number 3 off For Blood And Empire! you might have it as Emigre on your CD...

Intro:

G|----------------------------------------------------------------|
D|----------------------------------------------------------------|
A|-----------------4-4-4-4-6-6-6-6--------------------------------|
E|-4-4-4-4-4-4-4-4-----------------7-7-7-7-7-7-7-7-2-2-2-2-2-2-2-2|

G|----------------------------------------------------------------|
D|-------------------------------------------------4-4-4-4-4-4-4-4|
A|-----------------6-6-6-6-4-4-4-4--------------------------------|
E|-4-4-4-4-4-4-4-4-----------------7-7-7-7-7-7-7-7----------------|

G|----------------------------------------------------------------|
D|----------------------------------------------------------------|
A|-----------------4-4-4-4-6-6-6-6--------------------------------|
E|-4-4-4-4-4-4-4-4-----------------7-7-7-7-7-7-7-7-2-2-2-2-2-2-2-2|

G|---------------------------------------------------|
D|---------------------------------------------------|
A|-----------------6-6-6-6-4-4-4-4-------------------|
E|-4-4-4-4-4-4-4-4-----------------7-7-7-7-7-7-7-7-2-|

G|------------------------------------|
D|-------------------------------4-4-4|
A|-----4-6---------------6-4----------|x2
E|-4-4-----7-7-2-2-2-4-4-----7-7------|

Verse:

G|------------------------------|
D|------------------------------|
A|---------------------------4-4|x2
E|-2-4-4-4-2-4-2-4-2-4-4-4-2----|

G|---------4-3-------------4-3---|
D|-----6-------6-4-----6-------4-|
A|---6---6-----------6---6-------|
E|-4---------------4-------------|

G|-------------------------------|
D|-------------------------------|
A|---------------------------4-4-|
E|-2-4-4-4-2-4-2-4-2-4-4-4-2-----|

Pre-Chorus

G|-------------|
D|------6h8p6--|
A|-2--2-------9|
E|-------------|

Chorus:

G|------------------------------------|
D|-------------------------------4-4-4|
A|-----4-6---------------6-4----------|x2
E|-4-4-----7-7-2-2-2-4-4-----7-7------|

Verse:
[ Tab from: http://www.guitartabs.cc/tabs/a/anti_flag/exodus_btab.html ]
G|------------------------------|
D|------------------------------|
A|---------------------------4-4|x2
E|-2-4-4-4-2-4-2-4-2-4-4-4-2----|

G|---------4-3-------------4-3---|
D|-----6-------6-4-----6-------4-|
A|---6---6-----------6---6-------|
E|-4---------------4-------------|

G|-------------------------------|
D|-------------------------------|
A|---------------------------4-4-|
E|-2-4-4-4-2-4-2-4-2-4-4-4-2-----|

Pre-Chorus

G|-------------|
D|------6h8p6--|
A|-2--2-------9|
E|-------------|

Chorus:

G|------------------------------------|
D|-------------------------------4-4-4|
A|-----4-6---------------6-4----------|x2
E|-4-4-----7-7-2-2-2-4-4-----7-7------|

Bridge:

G|-------------------------------------|
D|------6-6--------------6-6-----------|
A|--------------4-6--------------6-4---|x2
E|-4--4-----7-2-----4--4-----7-2-----4-|

G|----------------|
D|---6-6----------|
A|-----------4-6--|
E|-4-----7-2-----4|

G|----------------------------------------------------------------|
D|----------------------------------------------------------------|
A|-----------------4-4-4-4-6-6-6-6--------------------------------|
E|-4-4-4-4-4-4-4-4-----------------7-7-7-7-7-7-7-7-2-2-2-2-2-2-2-2|

G|----------------------------------------------------------------|
D|-------------------------------------------------4-4-4-4-4-4-4-4|
A|-----------------6-6-6-6-4-4-4-4--------------------------------|
E|-4-4-4-4-4-4-4-4-----------------7-7-7-7-7-7-7-7----------------|

G|----------------------------------------------------------------|
D|----------------------------------------------------------------|
A|-----------------4-4-4-4-6-6-6-6--------------------------------|
E|-4-4-4-4-4-4-4-4-----------------7-7-7-7-7-7-7-7-2-2-2-2-2-2-2-2|

G|---------------------------------------------------|
D|---------------------------------------------------|
A|-----------------6-6-6-6-4-4-4-4-------------------|
E|-4-4-4-4-4-4-4-4-----------------7-7-7-7-7-7-7-7-2-|

Chorus:

G|---------------------------------------------|
D|-------------6-4---4---------------6-4---4---|
A|-----4-6---------6---6-----6-4---------6---6-|x2
E|-4-4-----7-7-----------4-4-----7-7-----------|