Anti-flag - Ever Fallen In Love Chords & Tabs

 

Ever Fallen In Love Chords & Tabs

Anti-flag Chords & Tabs

Version: 1 Type: Bass Tab

Ever Fallen In Love Bass Tab

   
-----------------------------------------------------------------------------
			     ever fallen in love - anti-flag 
-----------------------------------------------------------------------------
Tabbed By : steve
e-mail:     allchavsrgay@hotmail.com

Tuning:eadg

Do the slide only frist time round.

intro/verse
G|-12\-----------------------------------------------------------|
D|--------------7-6-7-9-7-6--------------------------------------|
A|----4-4-4-4-4--------------2-2-2-2-2-2-2-2-2-2-2-2-------------|
E|---------------------------------------------------------------|
[ Tab from: http://www.guitartabs.cc/tabs/a/anti_flag/ever_fallen_in_love_btab.html ]
chorus
G|--------------------------------------------------------------|
D|--------------------------------------------------------------|
A|-4-4-4-4-4-2-2-2-2-2-4-4-4-4-4-2-2-2-2-2-5-5-5-5-5------------|
E|---------------------------------------------------5-5-5-5-5--|

G|-----------------|
D|-----------------|
A|---7--------7----|
E|-7---7--7-7---7--|

bridge
G|-----------------|
D|-----------------|
A|-----------------|
E|-0-0-0-0-0-0-0-0-|

outro
G|------------------------------------------|
D|------------------------------------------|
A|---5--------5-----------------------------|
E|-5---5--5-5---5-3-3-3-3-3-7-7-7-7-7-0-----|

order
intro   X 3
chorus  X 1
intro   X 2
chorus  X 1
intro   X 2
chorus  X 2
bridge  X 12
chorus  X 1
outro   X 1  let last note ring out