Anti Flag - Drink Drank Punk Chords & Tabs

 

Drink Drank Punk Chords & Tabs

Anti Flag Chords & Tabs

Version: 1 Type: Tab 0 ratings
1 star 2 stars 3 stars 4 stars 5 stars
comments

Drink Drank Punk Tab

   
#---------------------------------PLEASE NOTE----------------------------------#
#This file is the author's own work and represents their interpretation of the #
#song. You may only use this file for private study, scholarship, or research. #
#------------------------------------------------------------------------------#
#------------Created with Taborama Tab Creator-----------------#
#------------------------------------------------------------------------------#

Title: Drink Drank Punk
Artist: Anti-Flag
Album: Die For The Government

Instrument: 6 String Guitar

Tabbed by: Nicholas (think_blink_182@hotmail.com)
[ Tab from: http://www.guitartabs.cc/tabs/a/anti_flag/drink_drank_punk_tab.html ]
Tuning: Standard (E A D G B E)Intro
E|-------------------------------------------------------------||
B|-------------------------------------------------------------||
G|----------6-6-6-6---------6-6-6-6---------6-6-6-6---------6--||
D|--6-6-6-6-6-6-6-6-6-6-6-6-6-6-6-6-6-6-6-6-6-6-6-6-6-6-6-6-6--||
A|--6-6-6-6-4-4-4-4-6-6-6-6-4-4-4-4-6-6-6-6-4-4-4-4-6-6-6-6-4--||
E|--4-4-4-4---------4-4-4-4---------4-4-4-4---------4-4-4-4----||

Verse
E|---------------------------------------------------||
B|------------R-----------R-----------R--------------||
G|----------6-E---------6-E---------6-E---------6~~--||
D|--6-6-6-6-6-S-6-6-6-6-6-S-6-6-6-6-6-S-6-6-6-6-6~~--||
A|--6-6-6-6-4-T-6-6-6-6-4-T-6-6-6-6-4-T-6-6-6-6-4~~--||
E|--4-4-4-4-----4-4-4-4-----4-4-4-4-----4-4-4-4-4~~--||

Chorus
E|-------------------------------------------------------------||
B|-------------------------------------------------------------||
G|----------6-6-6-6---------6-6-6-6---------6-6-6-6---------6--||
D|--6-6-6-6-6-6-6-6-6-6-6-6-6-6-6-6-6-6-6-6-6-6-6-6-6-6-6-6-6--||
A|--6-6-6-6-4-4-4-4-6-6-6-6-4-4-4-4-6-6-6-6-4-4-4-4-6-6-6-6-4--||
E|--4-4-4-4---------4-4-4-4---------4-4-4-4---------4-4-4-4----||

Bridge
E|-----------------------------------||
B|-----------------------------------||
G|--4-4-4-4-6-6-6-6-8-8-8-8-8-8-8-8--||
D|--4-4-4-4-6-6-6-6-8-8-8-8-8-8-8-8--||
A|--2-2-2-2-4-4-4-4-6-6-6-6-6-6-6-6--||
E|-----------------------------------||

Enjoy!
Comments