Anti Flag - Die For Your Government Chords & Tabs

 

Die For Your Government Chords & Tabs

Anti Flag Chords & Tabs

Version: 1 Type: Tab 0 ratings
1 star 2 stars 3 stars 4 stars 5 stars
comments

Die For Your Government Tab

/- Pick Slide Down Board

Intro
-------------------------------------------------------
-------------------------------------------------------
---/--6-----------6-----9---------6-----------6-----9--
---/--6--7--2--4--6--7--9--9------6--7--2--4--6--7--9--
---/--4--7--2--4--4--7--7--9------4--7--2--4--4--7--7--
--------5--0--2-----5-----7---------5--0--2-----5------
[ Tab from: http://www.guitartabs.cc/tabs/a/anti_flag/die_for_your_government_tab.html ]
Verse (palm muted except for the first two notes)
-------------------------------------------------------
-------------------------------------------------7-----
---6--6--/----6-6-6-6-6-6(etc.)---6-7-6-4--6-7-6-------
---------/---------------------------------------------
---------/---------------------------------------------
-------------------------------------------------------
(just listen to the song for the pattern and how many 
times to play the notes)

Chorus
-------------------------------------------------------
-------------------------------------------------------
-----6-----------6-----9---------6-----------6-----9---
-----6--7--2--4--6--7--9--9------6--7--2--4--6--7--9---
-----4--7--2--4--4--7--7--9------4--7--2--4--4--7--7---
--------5--0--2-----5-----7---------5--0--2-----5------

Repeat Verse
Repeat Chorus

Interlude
----------------------------------------
----------------------------------------
---6-----6-----9-9----6-----6-----------
---6--7--6--7--9-9----6--7--6--7-7-777--
---4--7--4--7--7-7----4--7--4--7-7-777--
------5-----5------------5-----5-5-555--

Repeat Chorus Over and Over
Comments