Anti-flag - Daddy Warbux Chords & Tabs

 

Daddy Warbux Chords & Tabs

Anti-flag Chords & Tabs

Version: 1 Type: Tab 0 ratings
1 star 2 stars 3 stars 4 stars 5 stars
comments

Daddy Warbux Tab

   
'Daddy Warbux'  By Anti-Flag    Tabbed by Shanus McGee 

| /  slide up
| \  slide down
| h  hammer-on
| p  pull-off
| ~  vibrato
| +  harmonic
| x  Mute note
| *  Palm Mute



 Intro
e|---------------------------------------------------------------------------|
B|------4--2------7--6-------4--2--------------------------------------------|
G|------------4~--------6~---------4~---7---9----11--------------------------|
D|---------------------------------------------------------------------------|
A|---------------------------------------------------------------------------|
E|---------------------------------------------------------------------------|

Verse
e|------------------------------|---------------------------------------------|
B|------------------------------|---------------------------------------------|
G|---3------6------3------6-----|-3------6------3-------6-----6-----10~-------|
D|---1--4---4--6---1--4---4--6--|-1--4---4--6---1--4----4-----8-----8~--------|
A|------2-------4-------2----4--|----2------4------2--------------------------|
E|------------------------------|---------------------------------------------|

Lead:

e|---------------------------------------------------------------------------|
B|------4--2------7--6-------4--2--------------------------------------------|
G|------------4~--------6~---------4~---7---9----11--------------------------|
D|---------------------------------------------------------------------------|
A|---------------------------------------------------------------------------|
E|---------------------------------------------------------------------------|

Rhythm:
e|------------------------------------------------------------------------|
B|------------------------------------------------------------------------|
G|------3---------6----------3---------6----8----10-----------------------|play again for next
D|------1--6--4---4--10--6---1--6--4---4----6----8------------------------|verse
A|---------4--2------8---4------4--2--------------------------------------|
E|------------------------------------------------------------------------|
[ Tab from: http://www.guitartabs.cc/tabs/a/anti_flag/daddy_warbux_tab.html ]
Then
e|---------------------------|------------------------------------------------|
B|-----2h4---2h4---2h4---2p0-|--2h4---2h4---2h4-------------------------------|
G|---------------------------|--------------------6----8----10----------------|
D|---------------------------|--------------------4----6----8-----------------|
A|---------------------------|------------------------------------------------|
E|---------------------------|------------------------------------------------|

&
Lead:

e|---------------------------------------------------------------------------|
B|------4--2------7--6-------4--2--------------------------------------------|
G|------------4~--------6~---------4~---7---9----11--------------------------|
D|---------------------------------------------------------------------------|
A|---------------------------------------------------------------------------|
E|---------------------------------------------------------------------------|

Rhythm:
e|------------------------------------------------------------------------|
B|------------------------------------------------------------------------|
G|------3---------6----------3---------6----8----10-----------------------|play again for next
D|------1--6--4---4--10--6---1--6--4---4----6----8------------------------|verse
A|---------4--2------8---4------4--2--------------------------------------|
E|------------------------------------------------------------------------|


e|----------------------------|-----------------------------------------------|
B|----------------------------|-----------------------------------------------|
G|-3------6------3------6-----|-----------------------------------------------|
D|-1--4---4--6---1--4---4--6--|----666-----666----666----pickslide------------|
A|----2------4------2------4--|----444-----444----444-------------------------|
E|----------------------------|-----------------------------------------------|

    ***    ****   ***    ****
e|----------------------------|-----------------------------------------------|
B|----------------------------|-----------------------------------------------|
G|--3333----------6666--------|times-----3333----------6----8---10------------|
D|--1111---4444---4444---6666-|3---------1111--4444----4----6---8-------------|
A|---------2222----------4444-|----------------2222---------------------------|
E|----------------------------|-----------------------------------------------|

then just go up to the & and u should be able to figure out the rest.

any problems / fanmail etc email Shanus_McGee@hotmail.com
Comments