Anti-flag - Culture Revolution Chords & Tabs

 

Culture Revolution Chords & Tabs

Anti-flag Chords & Tabs

Version: 1 Type: Tab 0 ratings
1 star 2 stars 3 stars 4 stars 5 stars
comments

Culture Revolution Tab

Mxtabs [http://www.mxtabs.net]
\ or / = slide down or up
(123) or (321)= ascending or descending harmonic slide
*=natural harmonic (finger over fret bar)
# =32 times
@=16 times
&= 8 times
%=repeat
pm----- = palm mutted

Intro:
(guitar 1):
# @ @
|----11-----13-----14---------|
|----11-----11-----11---------|
|----11-----11-----11---------|
|-----------------------------|
|-----------------------------|
|-----------------------------|
+
(guitar 2):
# * * * * * * * * * * * * * * * * * * * * * * * * * * * * * *
|----------------------------------------------------------------------------|
|--------9-9---------------9-9---------------9-9-----------------------------|
|-------------9-9---------------9-9---------------9-9------------------------|
|------------------9-9---------------9-9---------------9-9-----9-9-----9-9---|
|-----6-------------------9-9---------------9-9---------------9-9-----9-9----|
|-----4----------------------------------------------------------------------|

Chorus:
(lead guitar) 1. ____ 2.___
|------------------------------------------|--------------|------------|
|------------------------------------------|--------------|------------|
|------------------------------------------|--------------|------------|
|------------13\----------13\----------13\-|--------------|------------|
|--11-11-11------11-11-11------11-11-11----|--------------|------------|
|------------------------------------------|--(55443322)--|-(22334455)-|

(rythem guitar)
|----------------------------------------------------------|
|----------------------------------------------------------|
|----------------------------------------------------------|
|------------------------4-4-4-4-4-------------------------|
|--6-6-6-6-6--2-2-2-2-2--2-2-2-2-2--x-4-x-4----------------|
|--4-4-4-4-4--0-0-0-0-0-------------x-2-x-2----------------|

Verse:
(guitar 1):
|--------------------------------------|
|--------------------------------------|
|----13------13------13------13--------|
|--------------------------------------|
|----11------11------11------11--------|
|--------------------------------------|

(guitar 2):
|----------------------------------------------|
|----------------------------------------------|
|--8-8-8-8--8-8-8-8--11--8-8-8-8--8-8-8-8--4---|
|----------------------------------------------|
|--6-6-6-6--6-6-6-6---9--6-6-6-6--6-6-6-6--2---|
|----------------------------------------------|
[ Tab from: http://www.guitartabs.cc/tabs/a/anti_flag/culture_revolution_tab.html ]
In between verse...:
@ & &
|----11-----13-----14---------|
|----11-----11-----11---------|
|----11-----11-----11---------|
|-----------------------------|
|-----------------------------|
|-----------------------------|

Pre chorus:
|----------------------------------|
|----------------------------------|
|----------------------------------|
|--------------4-----4-------------|
|--2-----------2--4--2--4----------|
|--0--------------2-----2----------|

Post chorus: * *
|-----------------------------|
|--------------------7--------|
|--8--------------7-----------|
|-----------------------------|
|--6--------------------------|
|-----------------------------|

Bridge:
(lead guitar)
|-----------------------------------|
|-----------------------------------|
|--11-10----------------------------|
|---------13-11-10------------------|
|--------------------13-11-10-9-----|
|-----------------------------------|

(rhythm guitar): ****** ****** ******
|------------------|-------------------------------------------|
|------------------|-------------------------------------------|
|%----------------%|%-----------------------------------------%|
|%----------4-----%|%---------------------------------4-------%|
|--6--6--6--2--4---|--6----------6----------6---------2--4-----|
|--4--4--4-----2---|--4--444444--4--444444--4--444444-----2----|

After the bridge play this lil note:
|----4----|
|----4----|
|----4----|
|----6----|
|----6----|
|----4----|

Post bridge:
|---------------------------------------------------------------------------|
|---------------------------------------------------------------------------|
|----------------------------------------4-4-4-4-4-4-4-4--8-8-8-8-8-8-8-8---|
|----------------------------------------6-6-6-6-6-6-6-6--9-9-9-9-9-9-9-9---|
|--6-6-6-6-6-6-6-6-6-6-6-6-6-6-6-6------------------------------------------|
|--4-4-4-4-4-4-4-4-4-4-4-4-4-4-4-4------------------------------------------|
pm--------------------------------------------------------------------------|

|---------------------------------------|
|---------------------------------------|
|---------------------------------------|
|---------------------------------------|
|----2-2-2--2-2-2--4-4-4--4-4-4---------|
|----0-0-0--0-0-0--2-2-2--2-2-2---------|

Play these 2 lines a few times then repeat the last one.

And thats the whole song.
I don't take credit for this. UG was lacking this tab so I went and got it from another 
Give the guy from MXtabs all the credit for.
Comments