Anti-flag - Cities Burn Chords & Tabs

 

Cities Burn Chords & Tabs

Anti-flag Chords & Tabs

Version: 1 Type: Bass Tab

Cities Burn Bass Tab

Cities Burn - Anti-Flag

Intro:

starts with Drums, no bass
guitar comes in, stills no bass
then the bass comes in

Gb|-------------------------------------|
Db|-------3-3-3-3-3-3-3-3-3-5-3-2-3-2---|
Ab|-3--5------------------------------5-|
Eb|-------------------------------------|

Verse:

Gb|---------------------------------------5-|
Db|-----5-----3-----2-----0-----0---0-2-0---|
Ab|-3-3---3-3---3-3---3-3-----3---3---------|
Eb|-------------------------1---------------|

Gb|---------------------------------------|
Db|-----5-----3-----2-----0-----0---0-2-0-|
Ab|-3-3---3-3---3-3---3-3-----3---3-------|
Eb|-------------------------1-------------|

Gb|---------------------------------------5-|
Db|-----5-----3-----2-----0-----0---0-2-0---|
Ab|-3-3---3-3---3-3---3-3-----3---3---------|
Eb|-------------------------1---------------|

Gb|---------------------------------------|
Db|-----5-----3-----2-----0-----0---0-2-0-|
Ab|-3-3---3-3---3-3---3-3-----3---3-------|
Eb|-------------------------1-------------|

Bridge:

Gb|----------------------------------------------|
Db|-------3--------3-3-3-3-3-3-3-3-3-5-3-2-3-2---|
Ab|-3--5-----3--5------------------------------5-|
Eb|----------------------------------------------|

Verse:

Gb|------------------|
Db|------0---0-2-0-5-|
Ab|----3---3---------|
Eb|--1---------------|

Gb|---------------------------------------|
Db|-----5-----3-----2-----0-----0---0-2-0-|
Ab|-3-3---3-3---3-3---3-3-----3---3-------|
Eb|-------------------------1-------------|

Gb|---------------------------------------5-|
Db|-----5-----3-----2-----0-----0---0-2-0---|
Ab|-3-3---3-3---3-3---3-3-----3---3---------|
Eb|-------------------------1---------------|

Gb|---------------------------------------|
Db|-----5-----3-----2-----0-----0---0-2-0-|
Ab|-3-3---3-3---3-3---3-3-----3---3-------|
Eb|-------------------------1-------------|

Pre-Chorus:

Gb|------------------------------------|
Db|---------------3------------------5-|
Ab|-------------3-----------8-8-8------|
Eb|-5-5-3-3-1-1-----5-5-3-3-------5----|

Chorus:
[ Tab from: http://www.guitartabs.cc/tabs/a/anti_flag/cities_burn_btab.html ]
Gb|---------------------------------------------|
Db|-------3-------3-3-3-3-3-3-3-3-3-5-3-2-3-2---|
Ab|-3--5-----3--5-----------------------------5-|
Eb|---------------------------------------------|

Verse:

Gb|---------------------------------------5-|
Db|-----5-----3-----2-----0-----0---0-2-0---|
Ab|-3-3---3-3---3-3---3-3-----3---3---------|
Eb|-------------------------1---------------|

Gb|---------------------------------------|
Db|-----5-----3-----2-----0-----0---0-2-0-|
Ab|-3-3---3-3---3-3---3-3-----3---3-------|
Eb|-------------------------1-------------|

Gb|---------------------------------------5-|
Db|-----5-----3-----2-----0-----0---0-2-0---|
Ab|-3-3---3-3---3-3---3-3-----3---3---------|
Eb|-------------------------1---------------|

Gb|---------------------------------------|
Db|-----5-----3-----2-----0-----0---0-2-0-|
Ab|-3-3---3-3---3-3---3-3-----3---3-------|
Eb|-------------------------1-------------|

Pre-Chorus:

Gb|------------------------------------|
Db|---------------3------------------5-|
Ab|-------------3-----------8-8-8------|
Eb|-5-5-3-3-1-1-----5-5-3-3-------5----|

Bridge:

Gb|-------------------------------------------------------------------------------------|
Db|-------------------------2-3-3-3-3-3-3-3-2---2---------5-5-5-5-3-3-3-3-5-3-2-3-2---2-|
Ab|-3-3-3-3-3-3-3-3-3-3-5-5-------------------5-------------------------------------5---|
Eb|-----------------------------------------------5-5-5-5-------------------------------|

Gb|-------------------------------------------------------------------------------------|
Db|-------------------------2-3-3-3-3-3-3-3-2---2---------5-5-5-5-3-3-3-3-3-3-3-3-5-5---|
Ab|-3-3-3-3-3-3-3-3-3-3-5-5-------------------5---------------------------------------3-|
Eb|-----------------------------------------------5-5-5-5-------------------------------|

Gb|-----------------------------------------|
Db|----------------3--------3-3-3-3-3-3-3-3-|
Ab|-no-bass--3--5-----3--5------------------|
Eb|-----------------------------------------|

Outro:

Gb|-------5------------------------5-|
Db|---3-5-----0-2-3-2----0---0-2-0---|
Ab|-3------------------3---3---------|x4
Eb|------------------1---------------|