Anti Flag - Captain Anarchy Chords & Tabs

 

Captain Anarchy Chords & Tabs

Anti Flag Chords & Tabs

Version: 2 Type: Tab 0 ratings
1 star 2 stars 3 stars 4 stars 5 stars
comments

Captain Anarchy Tab

   
Artist:  Anti Flag
Song:  Captain Anarchy
Album:  A New Kind of Army
Tabbed by:  Rick  (rickrack97@hotmail.com)
AIM:  rickrack97


Chords:

D#5  (x688xx)
C#5  (x466xx)
G#5  (466xxx)
Bb5  (688xxx)
C5   (8-10-10xxx)

Intro:

E|--------------------------------------------------------------|
B|--------------------------------------------------------------|
G|----------------8---------------------------------------------|
D|----------------8--palm mute a whole lot----------------------|
A|----------------6---------------------------------------------|
E|-pick scrape--------------------------------------------------|

Intro 2/Chorus:

E|------------------------------------------------------------------|
B|------------------------------------------------------------------|
G|--8-8-8-8-8-8-8-8-8-8-8-8-8-8-8-8-6-6-6-6-6-6-6-6-----------------|
D|--8-8-8-8-8-8-8-8-8-8-8-8-8-8-8-8-6-6-6-6-6-6-6-6-6-6-6-6-6-6-6-6-|
A|--6-6-6-6-6-6-6-6-6-6-6-6-6-6-6-6-4-4-4-4-4-4-4-4-6-6-6-6-6-6-6-6-|
E|--------------------------------------------------4-4-4-4-4-4-4-4-|

Intro 3: intro 2/chorus is played as well
[ Tab from: http://www.guitartabs.cc/tabs/a/anti_flag/captain_anarchy_tab_ver_2.html ]
E|--------------------------------------------------------------|
B|--------------------------------------------------------------|
G|-8-6---8-6---10-8-6--8-6-----8-6---8-6----10-8-6--8~~~--------|
D|-----8-----8-------------8-------8-----8----------------------|
A|--------------------------------------------------------------|
E|--------------------------------------------------------------|

Verse:

E|--------------------------------------------------------------|
B|--------------------------------------------------------------|
G|--8--88888888--8--88888888--6--66666666-----------------------|
D|--8--88888888--8--88888888--6--66666666--6--66666666----------|
A|--6--66666666--6--66666666--4--44444444--6--66666666----------|
E|-----------------------------------------4--44444444----------|
       |-------|    |-------|    |-------|    |-------|
         p.m.         p.m.         p.m.         p.m.

Bridge: this part is played three times then then next part is played

E|-----------------------------------|
B|-----------------------------------|
G|-----------------6-6-6-6-6-6-6-6---|
D|-8-8-8-8-8-8-8-8-6-6-6-6-6-6-6-6---|
A|-8-8-8-8-8-8-8-8-4-4-4-4-4-4-4-4---|
E|-6-6-6-6-6-6-6-6-------------------|

cont.
E|--------------------------------------------------------------|
B|--------------------------------------------------------------|
G|--------------------6-6--6-8-8-8-8---8------------------------|
D|--8-8--8-10-10--10--6-6--6-8-8-8-8---8--let ring four times---|
A|--8-8--8-10-10--10--4-4--4-6-6-6-6---6----then do a pick------|
E|--6-6--6--8--8---8---------------------------scrape-----------|

After that, play intro 3 - three times palm muted, once not palm muted,
then play the chorus a few times and end on a D#5.

That's all.  Good song.  Later.
Comments