Anti Flag - Captain Anarchy Chords & Tabs

 

Captain Anarchy Chords & Tabs

Anti Flag Chords & Tabs

Version: 1 Type: Bass Tab 0 ratings
1 star 2 stars 3 stars 4 stars 5 stars
comments

Captain Anarchy Bass Tab

Anti-Flag:
Captain Anarchy
Tabbed by: intense@westol.com

this is tabbed in normal antiflag tuning (half step down). if you're
regular tuning, just play everything one fret lower than what it says
on this tab

Intro:
Gb-----------------------------9-9-9-9-9-9-9-
Db---------------9-9-9-9-9-9-9---------------
Ab-7-7-7-7-7-7-7-----------------------------
Eb-------------------------------------------


Verse/Chorus:
Gb-------------------------------------------------
Db-------------------------------------------------
Ab-7-7-7-7-7-7-7-7-7-7-7-7-5-5-5-5-5-5-------------
Eb-------------------------------------5-5-5-5-5-5-
[ Tab from: http://www.guitartabs.cc/tabs/a/anti_flag/captain_anarchy_btab.html ]
Line right before start of Verse:
Gb-------------------------------------------------
Db-------------------------------------7-7-7-7-7-7-
Ab-7-7-7-7-7-7-7-7-7-7-7-7-5-5-5-5-5-5-------------
Eb-------------------------------------------------

Last line of Chorus:
Gb-9-9-9-9-9-9-9-9-9-9-9-9-7-7-7-7-7-7-------------
Db-------------------------------------7-7-7-7-7-7-
Ab-------------------------------------------------
Eb-------------------------------------------------


Bridge:
Gb---------------------------------------
Db---------------------------------------
Ab---------------------5-5-5-5-5-5-5-5-5-    (3x)
Eb-7-7-7-7-7-7-7-7-7-7-------------------

then

Gb-----------------------------
Db-----------------------------
Ab---------4-4-4--5-5-5--7-7-7-
Eb-7-7-7-----------------------
Comments