Anti-flag - Bring Out Your Dead Chords & Tabs

 

Bring Out Your Dead Chords & Tabs

Anti-flag Chords & Tabs

Version: 1 Type: Tab 0 ratings
1 star 2 stars 3 stars 4 stars 5 stars
comments

Bring Out Your Dead Tab

Anti-Flag

Bring Out Your Dead

I really couldnt find this tab anywhere. so i just sat down and figured it out.
It took me about one-half an hour but i did it for all you guys/girls.

e|---------------------------------------------------------------------------| 
B|---------------------------------------------------------------------------| 
G|--5/6--------<<<-----------------------------------------------------------| 
D|--x-x--------<<<-----------------------------------------------------------| 
A|--3/4--------<<<-----------------------------------------------------------| 
E|---------------------------------------------------------------------------| 

e|---------------------------------------------------------------------------| 
B|---------------------------------------------------------------------------| 
G|--6--4--9--8----11---6--4--9--8--13-11-------------------------------------| 
D|--x--x--x--x--7--x---x--x--x--x---x--x-------------------------------------| 
A|--4--2--7--6-----9---4--2--7--6--11--9-------------------------------------| 
E|--------------5------------------------------------------------------------| 

e|---------------------------------------------------------------------------| 
B|----*-----------------*---------------*--------------*---------------------| 
G|---6--9--11----------6--11--9--------6--9-11--------6--11--9---#---#-------| 
D|---6--x---x--7--9----6---x--x--9--7--6--x--x--7--9--6---x--x--7---9--------| 
A|---4--7---9--7--9----4---9--7--9--7--4--7--9--7--9--4---9--7--7---9--------| 
E|-------------5--7--------------7--5-----------5--7------------5---7--------| 
[ Tab from: http://www.guitartabs.cc/tabs/a/anti_flag/bring_out_your_dead_tab.html ]
e|---------------------------------------------------------------------------| 
B|-------------------------------------(7b)----------------------------------| 
G|---9--9----------9--9------------------------------------------------------| 
D|---9--9--9--7----9--9--xx9xx9xx9xx9----------------------------------------| 
A|---7--6--9--7----7--6--xx9xx9xx9xx9----------------------------------------| 
E|---------7--5----------xx7xx7xx7xx7----------------------------------------| 


e|-------------------------------------------------------------------------------------| 
B|-------------------------------------------------------------------------------------| 
G|--6--4--9--8----11---6--4--9--8--13-11---16-14-16-14-16--14-12-11-12-11-9-7-6-9-7-6--| 
D|--x--x--x--x--7--x---x--x--x--x---x--x----x--x--x--x--x---x--x--x--x--x-x-x-x-x-x-x--| 
A|--4--2--7--6--x--9---4--2--7--6--11--9---14-12-14-12-14--12-10--9-10--9-7-5-4-7-5-4--| 
E|--------------5----------------------------------------------------------------------| 

then play verse and chorus again 

breakdown 1:41 
e|---------------------------------------------------------------------------| 
B|---------------------------------------------------------------------------| 
G|--6--9--8------------------------------------------------------------------| 
D|--x--x--x--9--7------------------------------------------------------------| 
A|--4--7--6--x--x------------------------------------------------------------| 
E|-----------7--5------------------------------------------------------------| 
 I'm not quite sure about that 2nd chord (in the chorus) but i'm pretty sure the
rest is right. And this song is on two c.d.'s: 'Mobilize' and 'Underground Network'


enjoi
Comments