Anti-flag - Bring Out Your Dead Chords & Tabs

 

Bring Out Your Dead Chords & Tabs

Anti-flag Chords & Tabs

Version: 2 Type: Bass Tab 0 ratings
1 star 2 stars 3 stars 4 stars 5 stars
comments

Bring Out Your Dead Bass Tab

Normal Tuning. This is played fast but it is an easy rhythm.

G------------------------------------------
D-------7-7--6-6--4-4--2-2--4-4--2-2--1-1--
A--4-4-------------------------------------
E------------------------------------------
[ Tab from: http://www.guitartabs.cc/tabs/a/anti_flag/bring_out_your_dead_btab_ver_2.html ]
G------------------------------------------
D-----------2-2-2-2------------4-4-4-4-----
A--0-0-0-0-----------2-2-2-2---------------
E------------------------------------------

this repeats through most of the song. This is a good song with a good bass line.
Enjoy

-Nick-
Comments