Anti Flag - Bring It To An End Chords & Tabs

 

Bring It To An End Chords & Tabs

Anti Flag Chords & Tabs

Version: 2 Type: Bass Tab 0 ratings
1 star 2 stars 3 stars 4 stars 5 stars
comments

Bring It To An End Bass Tab

Anti-Flag:
Bring It To An End
tabbed by: intense@westol.com

this is tabbed in normal antiflag tuning (half step down). if you're
regular tuning, just play everything one fret lower than what it says
on this tab

Verse:
Gb---------------------------------------------------------------------
Db-----11-11-9-9-----------9-9-7-7---------7-7-5-5-------------5-5-7-7-
Ab-9-9-----------11-11-7-7---------9-9-5-5---------7-7-----7-7---------
Eb-----------------------------------------------------5-5-------------
[ Tab from: http://www.guitartabs.cc/tabs/a/anti_flag/bring_it_to_an_end_btab_ver_2.html ]
Chorus:
Gb-------------------------------------------------
Db-------------------------------------------------
Ab-------------4-4-4-4-4-4-------------4-4-4-4-4-4-
Eb-6-6-6-6-6-6-------------6-6-6-6-6-6-------------

Outro:
Gb---------9----------5---------------------------
Db---11-11---11---7-7---7-------5-----------------
Ab-9------------5-----------7-7---7-7-7-7-7-7-7-7-
Eb------------------------5-----------------------

Gb---------9----------5----------------
Db---11-11---11---7-7---7-------5------
Ab-9------------5-----------7-7---7--7-
Eb------------------------5------------
Comments