Anti-flag - Apathy Strikes Out Chords & Tabs

 

Apathy Strikes Out Chords & Tabs

Anti-flag Chords & Tabs

Version: 1 Type: Tab 0 ratings
1 star 2 stars 3 stars 4 stars 5 stars
comments

Apathy Strikes Out Tab

     intro (2x)
e|--------------------------------------------------------
b|--*-*-------*-*-*-*----*-*-------*-*---*----------------
g|--6-6--*-*--7-7-7-7----6-6--*-*--7-7---9----------------
d|--6-6--6-6--7-7-7-7----6-6--6-6--7-7---9----------------
a|--4-4--6-6--5-5-5-5----4-4--6-6--5-5---7----------------
E|-------4-4------------------4-4-------------------------
[ Tab from: http://www.guitartabs.cc/tabs/a/anti_flag/apathy_strikes_out_tab.html ]
 1...2...1.2.3.4.. (2x)  (guitar 1)    
e|--------------------------------------------------------
b|--------------------------------------------------------
g|--6-6-------7-7-7-7----6-6-------7-7-7--9---------------
d|--6-6--6-6--7-7-7-7----6-6--6-6--7-7-7--9---------------
a|--4-4--6-6--5-5-5-5----4-4--6-6--5-5-5--7---------------
E|-------4-4------------------4-4-------------------------
   (guitar 2)     (2x)
e|---9-9-9---------------------9-9-9---------------12-12-12-12-
b|----------8-8-8--9-9-9-9-9-9---------8-8-8--9-9-9------------
g|-------------------------------------------------------------
d|-------------------------------------------------------------
a|-------------------------------------------------------------
E|-------------------------------------------------------------
   verse  (2x)
e|--------------------------------------------------------
b|-*-*-------*-*-*-*----*-*-------*-*-*-------------------
g|-6-6--*-*--7-7-7-7----6-6--*-*--7-7-7--9----------------
d|-6-6--6-6--7-7-7-7----6-6--6-6--7-7-7--9----------------
a|-4-4--6-6--5-5-5-5----4-4--6-6--5-5-5--7----------------
E|------4-4------------------4-4--------------------------
   chorus 
e|--------------------------------------------------------
b|--------------------------------------------------------
g|--------------------------------------------------------
d|-6-6-6--7-7-7--6-6-6--7-7-7--6-6-6--7-7-7--6-6-6--7-7-7-
a|-6-6-6--7-7-7--6-6-6--7-7-7--6-6-6--7-7-7--6-6-6--7-7-7-
e|-4-4-4--5-5-5--4-4-4--5-5-5--4-4-4--5-5-5--4-4-4--5-5-5-
  (guitar 1)  (2x)  
e|--------------------------------------------------------
b|--------------------------------------------------------
g|--6-6-------7-7-7-7----6-6-------7-7-7--9---------------
d|--6-6--6-6--7-7-7-7----6-6--6-6--7-7-7--9---------------
a|--4-4--6-6--5-5-5-5----4-4--6-6--5-5-5--7---------------
E|-------4-4------------------4-4------------------------- 
  (guitar 2)     (2x)
e|---9-9-9----------------------9-9-9---------------12-12-12-12-
b|----------8-8-8--9-9-9-9-9-9----------8-8-8--9-9-9------------
g|--------------------------------------------------------------
d|--------------------------------------------------------------
a|--------------------------------------------------------------
E|--------------------------------------------------------------
   verse  
e|----------------------------------------|------------------------------------
b|-*-*-------*-*-*-*----*-*-------*-*-*--*|*-*-------*-*-*-*--*-*--------------
g|-6-6--*-*--7-7-7-7----6-6--*-*--7-7-7--9|6-6--*-*--7-7-7-7--6-6--*-*--7-7-7-9
d|-6-6--6-6--7-7-7-7----6-6--6-6--7-7-7--9|6-6--6-6--7-7-7-7--6-6--6-6--7-7-7-9
a|-4-4--6-6--5-5-5-5----4-4--6-6--5-5-5--7|4-4--6-6--5-5-5-5--4-4--6-6--5-5-5-7
E|------4-4------------------4-4----------|-----4-4----------------4-4---------
   chorus 
e|--------------------------------------------------------
b|--------------------------------------------------------
g|--------------------------------------------------------
d|-6-6-6--7-7-7--6-6-6--7-7-7--6-6-6--7-7-7--6-6-6--7-7-7-
a|-6-6-6--7-7-7--6-6-6--7-7-7--6-6-6--7-7-7--6-6-6--7-7-7-
e|-4-4-4--5-5-5--4-4-4--5-5-5--4-4-4--5-5-5--4-4-4--5-5-5-
  (guitar 1)  (2x)  
e|--------------------------------------------------------
b|--------------------------------------------------------
g|--6-6-------7-7-7-7----6-6-------7-7-7--9---------------
d|--6-6--6-6--7-7-7-7----6-6--6-6--7-7-7--9---------------
a|--4-4--6-6--5-5-5-5----4-4--6-6--5-5-5--7---------------
E|-------4-4------------------4-4------------------------- 
  (guitar 2)     (2x)
e|---9-9-9----------------------9-9-9---------------12-12-12-12-
b|----------8-8-8--9-9-9-9-9-9------------8-8-8--9-9-9----------
g|--------------------------------------------------------------
d|--------------------------------------------------------------
a|--------------------------------------------------------------
E|--------------------------------------------------------------
       play 2x
e|--------------------------------------------------------
b|--------------------------------------------------------
g|--6-6-------7-7-7-7----6-6-------7-7-7--9---------------
d|--6-6--6-6--7-7-7-7----6-6--6-6--7-7-7--9---------------
a|--4-4--6-6--5-5-5-5----4-4--6-6--5-5-5--7---------------
E|-------4-4------------------4-4------------------------- 
   chorus 
e|--------------------------------------------------------
b|--------------------------------------------------------
g|--------------------------------------------------------
d|-6-6-6--7-7-7--6-6-6--7-7-7--6-6-6--7-7-7--6-6-6--7-7-7-
a|-6-6-6--7-7-7--6-6-6--7-7-7--6-6-6--7-7-7--6-6-6--7-7-7-
e|-4-4-4--5-5-5--4-4-4--5-5-5--4-4-4--5-5-5--4-4-4--5-5-5-

sorry but i couldnt find or figure out the outro
Comments