Anti-flag - Angry Young And Poor Chords & Tabs

 

Angry Young And Poor Chords & Tabs

Anti-flag Chords & Tabs

Version: 3 Type: Tab 0 ratings
1 star 2 stars 3 stars 4 stars 5 stars
comments

Angry Young And Poor Tab

This is my version of playing angry young and poor.
I'm pretty sure that is 100% correct but there may be things that are wrong.

< - Continuous Strumming
H - Hammer On
P - Pull Off

Intro (After the bass)
e--------------------------------| 
B--------------------------------| 
G--------4-----6<----------4-----| 
D--7--2--4--4--6<----7--2--4--4--| 
A--7--2--2--4--4<----7--2--2--4--| 
E--5--0-----2--------5--0-----2--| 

Main Riff 
e--------------4----------------| 
B---5-4---5-4h5--7-5p4-7-5-4h5--| 
G--6---4-6----------------------| 
D-------------------------------| 
A-------------------------------| 
E-------------------------------| 

e--------------4----------------| 
B---5-4---5-4h5--7-5p4----------| 
G--6---4-6-------------4~-------| 
D-------------------------------| 
A-------------------------------| 
E-------------------------------|

Verse
e------------------| 
B------------------| 
G--------4---------| 
D--7--2--4--4------| x3
A--7--2--2--4------| 
E--5--0-----2------| 

Pre-Chorus / Chorus
e---------------------| 
B---------------------| 
G--6<-------4<--------| 
D--6<-7<-2<-4<--------| x4
A--4<-7<-2<-2<--------| 
E-----5<-0<-----------|
[ Tab from: http://www.guitartabs.cc/tabs/a/anti_flag/angry_young_and_poor_tab_ver_3.html ]
Right before the chorus they play this little riff.
e-9-9-9------------------| 
B--9-9-9-----------------| 
G------------------------| 
D------------------------| 
A------------------------| 
E------------------------|

Then the main riff again, but on the second time theres a 7 on the high e string that plays 7.
e--------------4----------------| 
B---5-4---5-4h5--7-5p4-7-5-4h5--| 
G--6---4-6----------------------| 
D-------------------------------| 
A-------------------------------| 
E-------------------------------| 

e--------------4----------7-----| 
B---5-4---5-4h5--7-5p4----------| 
G--6---4-6-------------4~-------| 
D-------------------------------| 
A-------------------------------| 
E-------------------------------|

Verse
e------------------| 
B------------------| 
G--------4---------| 
D--7--2--4--4------| x3
A--7--2--2--4------| 
E--5--0-----2------| 

Pre-Chorus / Chorus
e---------------------| 
B---------------------| 
G--6<-------4<--------| 
D--6<-7<-2<-4<--------| x4
A--4<-7<-2<-2<--------| 
E-----5<-0<-----------|

After this chorus is done, just keep strumming this.

e---------------------| 
B---------------------| 
G--6<-----------------| 
D--6<-----------------|
A--4<-----------------| 
E---------------------|

Well yeah thats about it, please rate and leave a comment.
Comments