Anti-flag - Angry Young And Poor Chords & Tabs

 

Angry Young And Poor Chords & Tabs

Anti-flag Chords & Tabs

Version: 1 Type: Tab 0 ratings
1 star 2 stars 3 stars 4 stars 5 stars
comments

Angry Young And Poor Tab

Anti-Flag - Angry Young and Poor

Intro
e|---------------------------------------------------------------------------|
B|---------------------------------------------------------------------------|
G|------4----6-4-6-----------------------------------------------------------|repeat. listen to cd
D|--7-2-4-4--6-4-6-----------------------------------------------------------|for rhythm
A|--7-2-2-4--4-4-4-----------------------------------------------------------|
E|--5-0---2------------------------------------------------------------------|

Verse
Pm***********
e|---------------------------------------------------------------------------|
B|---------------------------------------------------------------------------|
G|-6--------------4----------------------------------------------------------|
D|-6----------5-2-4-4--------------------------------------------------------|
A|-4----------5-2-2-4--------------------------------------------------------|
E|------------7-0---2--------------------------------------------------------|
[ Tab from: http://www.guitartabs.cc/tabs/a/anti_flag/angry_young_and_poor_tab.html ]
Chorus
e|---------------------------------------------------------------------------|
B|---------------------------------------------------------------------------|
G|-6-----4-------------------------------------------------------------------|
D|-6-7-2-4-------------------------------------------------------------------|
A|-4-7-2-2-------------------------------------------------------------------|
E|---5-0---------------------------------------------------------------------|

Pre-chorus
PM*********
e|---------------------------------------------------------------------------|
B|--------------14--14-------------------------------------------------------|
G|-6-----4--------13--13-----------------------------------------------------|
D|-6-7-2-4-------------------------------------------------------------------|
A|-4-7-2-2-------------------------------------------------------------------|
E|---5-0---------------------------------------------------------------------|

main riff
e|-------------4-------------------------------------------------------------|
B|--5-4---5-4-5-7-5-4-7-5-4--------------------------------------------------|
G|-6---4-6-----------------4-------------------------------------------------|
D|---------------------------------------------------------------------------|
A|---------------------------------------------------------------------------|
E|---------------------------------------------------------------------------|
Comments