Anti-flag - Angry Young And Poor Chords & Tabs

 

Angry Young And Poor Chords & Tabs

Anti-flag Chords & Tabs

Version: 1 Type: Bass Tab 0 ratings
1 star 2 stars 3 stars 4 stars 5 stars
comments

Angry Young And Poor Bass Tab

   
Song: Angry Young and Poor
Artist: Anti-Flag
Album: Underground Network
Tuning: Standard (E-A-D-G)

Here's a tab of the bass part I found at a different site. Send all the credit to the 
at the bottom as i didn't write this tab.

Enjoy.

Intro:
G------------11-11-9-9-8-8-6------------------------|
D------11>------------------------------------------|
A-------------------------------7-----9-------------|
E---9>----------------------5-5---7-7----9---9-9-9--|


Pre-Verse:
G---------------------------------------------------------------------|
D---------------------------------------------------------------------|
A-------11-11-9-9-7-7-9-9-7-7-6-6---------7-7-5-5-4-4-----9-9-7-7-6-6-|
E---9-9---------------------------9-9-5-5-------------7-7-------------|


Verse:
G--------------------------------------------------|
D---------------------9-9-7-7-6-6------------------|
A-------11-11-9-9-7-7-------------7-7------7-----9-|
E---9-9--------------------------------5-5---7-7---|

G--------------------------------------------------|
D-----11-9-----------------------------------------|
A----------11-12-11-9----------7-----9-------------|
E---9-----------------12---5-5---7-7---------------|

G---------------------------------------------------|
D---11-9---------------9----------------------------|
A--------11------9--12---------7-----9--------------|
E-----------9-11-----------5-5---7-7----------------|
[ Tab from: http://www.guitartabs.cc/tabs/a/anti_flag/angry_young_and_poor_btab.html ]
G-----------------------------------------------------------|
D-----------------------------------9-9-11-11---------------|
A-------------------9-9-11-11-12-12-------------------------|
E---9-9-11-11-12-12---------------------------555555-777777-|


Pre-Chorus:
G--------------------------------------------------------------|
D--------------------------------------------------------------|
A-------11-11-9-9-7-7-----7-7-5-5-4-4--------------7-7-----7-7-|
E---9-9---------------5-5-------------0-5-7-9--7-7-----0-0-----|

G--------------------------------------------------------------|
D--------------------------------------------------------------|
A-------11-11-9-9-7-7-----7-7-5-5-4-4----------9-9-7-7-6-6-----|
E---9-9---------------5-5-------------0-5-7-9--------------7-7-|


Chorus:
G------------------------------------|
D----------------9-9-----------------|
A------7----7------------7-7-----7-7-|
E---9>---5>---0>-----7-7-----0-0-----|

Solo:
G----------------------------------------------------------------|
D----------------------------------------------------------------|
A----------------------------------------------------------------|
E----9---9-9-9-----9---9-9-9-------------------------------------|

G---14-13-11-----11---------------------11-13-14------------------|
D-------------14----14-13--------11-13-14-------------------------|
A-------------------------12-14------------------------7-----9----|
E--9------------------------------------------------5-5---7-7-----|

G-------------------------------9-8-9-8-11-13---------------------|
D--11-9------11-9------11-9---------------------------------------|
A------11-9------11-9----------------------7---9---7---9----7-----|
E----------------------------------------5---7---5---7----5---7---|

Adidas15cm0@yahoo.com  email me with comments and stuff...
Comments