Anti Flag - A New Kind Of Army Chords & Tabs

 

A New Kind Of Army Chords & Tabs

Anti Flag Chords & Tabs

Version: 3 Type: Tab 0 ratings
1 star 2 stars 3 stars 4 stars 5 stars
comments

A New Kind Of Army Tab

------------------------------------------------------------------------------
                   A New Kind Of Army (Solo)  Anti-Flag
------------------------------------------------------------------------------



e|-8\9-99--8\9-99--8\9-99-8\9-99-8\9-99-12p9----9-------------------------|
B|-8\9-99-8\9-99--8\9-99--8\9-99-8\9-99-------12---12p9---9----------------|
G|-------------------------------------------------------11---11p9----9-11b--|
D|-----------------------------------------------------------------11--------|
A|---------------------------------------------------------------------------|
E|---------------------------------------------------------------------------|

[ Tab from: http://www.guitartabs.cc/tabs/a/anti_flag/a_new_kind_of_army_tab_ver_3.html ]
e|---------------------------------------------------------------------------|
B|------9h12p9--------9h12p9--------9h12p9--------9h12p9--------12-12b-12-9--|
G|-9-----------9h11p9--------9h11p9--------9h11p9--------9h11p9--------------|
D|---11----------------------------------------------------------------------|
A|---------------------------------------------------------------------------|
E|---------------------------------------------------------------------------|

e|------------------------------------------|
B|---------------------9--------------------|
G|-11-9-11p9-------11-----11----------------|
D|-----------11~--------------11~-----------|
A|------------------------------------------|
E|------------------------------------------|

==============================================================================
Comments