Anti Flag - A New Kind Of Army Chords & Tabs

 

A New Kind Of Army Chords & Tabs

Anti Flag Chords & Tabs

Version: 3 Type: Bass Tab 0 ratings
1 star 2 stars 3 stars 4 stars 5 stars
comments

A New Kind Of Army Bass Tab

Anti-Flag
A new kind of army

Intro part 1      
G|-----------------------------|---------------------------------|
D|-----------------------------|---------------------------------|
A|--4~---------7~-----6--7--6--|--4~---------7~-----9--7--6--4---|
E|-------5~--------------------|--------5~-----------------------|
              
Intro part 2 (0:11)
|-6~--------9~---8--9--8----|--6~------11-11-9-9-8-8-6-6--9-9-8-8-6-6-4-4-|
|------7~-------------------|------7~-------------------------------------|
|---------------------------|---------------------------------------------|
|---------------------------|---------------------------------------------|
                    
|---------6-6------|------------------|-------------------|----------------|
|-----6-6-----6-6--|---------7-7-6-6--|-------------------|----------------|
|-4-4--------------|-----7-7----------|--7-7-7-7-7-7-7-7--|-6-6-7-7-6-6-44|
|------------------|-5-5--------------|-------------------|----------------| X2

Intro part 3                                                                                     
|----------------------------------|
|----------------------------------|
|-4-4-4-4---------7-7-7-7-6-6-6-6--|
|---------5-5-5-5------------------|X2 


Verse
|----------------------------------|
|----------------------------------|
|-4-4-4-4---------7-7-7-7-6-6-6-6--|
|---------5-5-5-5------------------|

Chorus 
|----------6-6------|-------------------|--------------|------------------|
|------6-6-----6-6--|----------7-7-6-6--|--------------|------------------|
|--4-4--------------|------7-7----------|--7--7--7--7--|--6-6-7-7-6-6-44-|
|-------------------|--5-5--------------|--------------|------------------|x2
(we're looking to start a new army...)

After chorus (1:08)
|----------------------------------|
|----------------------------------|
|-4-4-4-4---------7-7-7-7-6-6-6-6--|
|---------5-5-5-5------------------| x2
                                                                             
|--6~-----6--4---------6~---9~---11-9-8-----|
|---------------6--4--------------------11--|
|-------------------------------------------|
|-------------------------------------------|

Guitar Solo
|----------6-6------|-------------------|--------------|------------------|
|------6-6-----6-6--|----------7-7-6-6--|--------------|------------------|
|--4-4--------------|------7-7----------|--7--7--7--7--|--6-6-7-7-6-6-44-|
|-------------------|--5-5--------------|--------------|------------------| X2
                                                                             
After solo
|----------------------------------|
|----------------------------------|
|-4-4-4-4---------7-7-7-7-6-6-6-6--|
|---------5-5-5-5------------------|X4 
[ Tab from: http://www.guitartabs.cc/tabs/a/anti_flag/a_new_kind_of_army_btab_ver_3.html ]
Verse (1:44)
|----------------------------------|
|----------------------------------|
|-4-4-4-4---------7-7-7-7-6-6-6-6--|
|---------5-5-5-5------------------|

Chorus 
|---------6-6------|------------------|------------------|-----------------|
|-----6-6-----6-6--|---------7-7-6-6--|------------------|-----------------|
|-4-4--------------|-----7-7----------|-7-7-7-7-7-7-7-7--|-6-6-7-7-6-6-44-|
|------------------|-5-5--------------|------------------|-----------------|
(we're looking to start a new army...)
                                                                                 

Bridge                                  
|-------6-4---------------------11-11-9-9-8-8-99--11-11-13-13-14-14-16-16-|
|------------6-4-----------------------------------------------------------|
|-4~--------------7-6-4-----4~---------------------------------------------|
|-----------------------7--------------------------------------------------|

|-9-8-9-8-11-9-8----9-8-9-8-11-9-8----9-8-9-8-11-9-8----9-8-9-8-11-9-8-----|
|----------------9-----------------9-----------------9------------------9--|
|--------------------------------------------------------------------------|
|--------------------------------------------------------------------------| x4
 
|--------------------------------------------------------------------|
|--------------------------------------------------------------------|
|-4-4-4-4---------7-7-7-7-6-6-6-6---4-4-4-4---------7-7-7-7-9-9-9-9--|
|---------5-5-5-5---------------------------5-5-5-5------------------|

|-6-6-6-6---------9-9-9-9-8-8-8-8---6-6-6-6---------9-9-9-9-11-11-11-11---|
|---------7-7-7-7---------------------------7-7-7-7-----------------------|
|-------------------------------------------------------------------------|
|-------------------------------------------------------------------------|

|-9-8-9-8-11-9-8----9-8-9-8-11-9-8----9-8-9-8-11-9-8----9-8-9-8-11-9-8-----|
|----------------9-----------------9-----------------9------------------9--|
|--------------------------------------------------------------------------|
|--------------------------------------------------------------------------|


Chorus 
|---------6-6------|-------------------|------------------|----------------|
|-----6-6-----6-6--|----------7-7-6-6--|------------------|----------------|
|-4-4--------------|------7-7----------|-7-7-7-7-7-7-7-7--|-6-6-7-7-6-6-44|
|------------------|--5-5--------------|------------------|----------------| 
(we're looking to start a new army...)

Outro
|---------------------------------------------------------|
|---------------------------------------------------------|
|-4-4-4-4---------7-7-7-7-6-6-6-6---4-4-4-4----------7~---|
|---------5-5-5-5---------------------------5-5-5-5-------|
Comments