Anti Flag - A New Kind Of Army Chords & Tabs

 

A New Kind Of Army Chords & Tabs

Anti Flag Chords & Tabs

Version: 2 Type: Bass Tab 0 ratings
1 star 2 stars 3 stars 4 stars 5 stars
comments

A New Kind Of Army Bass Tab

Anti-Flag
A New Kind Of Army
tabbed by: intense@westol.com

Intro:
-----------------------------------------------
-----------------------------------------------
---------7---6-7-6---------7---9-9-7-7-6-6-----
-9---5-------------9---5-------------------9-9-

----------9---8-9-8----------11-11-9-9-8-8-------9-9-8-8-----------
-11---7-------------11---7-----------------11-11---------11-11-9-9-
-------------------------------------------------------------------
-------------------------------------------------------------------

Chorus:
-------------------------------------------
---------11----------7---------------------
---11-11----11---7-7-------7-7-7-7-6-7-6---
-9-------------5-------5-5---------------9-

Verse:
---------------------------------
---------------------------------
---------7-7-6-6---------7-7-9-9-
-9-9-5-5---------9-9-5-5---------
[ Tab from: http://www.guitartabs.cc/tabs/a/anti_flag/a_new_kind_of_army_btab_ver_2.html ]
After First Chorus:
-----------------------9-9-9-9-9-9-9-9-11-11-9-9-8-8-------
------11-9------11-----------------------------------11-11-
-----------11-9--------------------------------------------
-9---------------------------------------------------------

After Second Chorus:
----------------------------11-11-9-9-8-8-9-9-11-11-13-13-15-15-16-16-
-----11-9-------------------------------------------------------------
----------11-9--------------------------------------------------------
-9-------------11-9-7-7-9---------------------------------------------

Bridge solo shit:
-9-8-9-8-11-9-8---
----------------9-
------------------
------------------

Stuff After that shit:
-------------------------------------------9-9-8-8-----------9-9-11-11-
---------------------------------11-11-7-7---------11-11-7-7-----------
---------7-7-6-6---------7-7-9-9---------------------------------------
-9-9-5-5---------9-9-5-5-----------------------------------------------
Comments