Anti Flag - 911 For Peace Chords & Tabs

 

911 For Peace Chords & Tabs

Anti Flag Chords & Tabs

Version: 3 Type: Tab

911 For Peace Tab

Hey im to lazy to figure out the whole song so for now i'll just put the intro, maybe
sometime ill figure out the rest.
[ Tab from: http://www.guitartabs.cc/tabs/a/anti_flag/911_for_peace_tab_ver_3.html ]
First part of intro, play a couple times.
1|----------------------------------------------------------------|
2|----------------------------------------------------------------|
3|---------9-9/5---9-9/5---9-9/5----------------------------------|
4|-9-9-9---------------------------5-5-5---------7-7-7------------|
5|-7-7-7---------------------------3-3-3--5-5-5--5-5-5------------|
6|----------------------------------------3-3-3-------------------|

play a couple
1|----------------------------------------------------------------|
2|----------------------------------------------------------------|
3|-12-11------12-11-----12-11-----11-12-14------------------------|
4|-------12---------12--------12----------------------------------|
5|----------------------------------------------------------------|
6|----------------------------------------------------------------|