Anti Flag - 911 For Peace Chords & Tabs

 

911 For Peace Chords & Tabs

Anti Flag Chords & Tabs

Version: 2 Type: Tab 0 ratings
1 star 2 stars 3 stars 4 stars 5 stars
comments

911 For Peace Tab

      
-------------------------------------------------------------------------------
                           911 FOR PEACE - Anti-Flag
-------------------------------------------------------------------------------

/ = slide forward
\ = slide backward
~ = bend

Intro
Guitar 1
e|-----------------------------------------------------------------------------|
B|-----------------------------------------------------------------------------|
G|-----------------------------------------------------------------------------|
D|--10-10-10----------------------------------------------8-8-8----------------|
A|---8--8--8-----------------------11-11-11-------6-6-6---6-6-6----------------|
E|----------------------------------9--9--9-------4-4-4------------------------|

Guitar 2
e|-----------------------------------------------------------------------------|
B|-----------------------------------------------------------------------------|
G|------------/10~10\-/10~10\-/10~10\------------------------------------------|
D|-----------------------------------------------------------------------------|
A|-----------------------------------------------------------------------------|
E|-----------------------------------------------------------------------------|

Guitar 1
e|-----------------------------------------------------------------------------|
B|-----------------------------------------------------------------------------|
G|-----------------------------------------------------------------------------|
D|--10-10-10-------------------------------------------------------8-8-8-------|
A|---8--8--8-----------------------11-11-11-11-11-11-11----6-6-6-6-6-6-6-------|
E|----------------------------------9--9--9--9--9--9--9----4-4-4-4-------------|
                                   ---------palm mute---------
Guitar 2
e|-----------------------------------------------------------------------------|
B|-----------------------------------------------------------------------------|
G|------------/10~10\-/10~10\-/10~10\------------------------------------------|
D|-----------------------------------------------------------------------------|
A|-----------------------------------------------------------------------------|
E|------------------------------------|___________ Pick slide ___________|-----|

Guitar 1
e|-----------------------------------------------------------------------------|
B|-----------------------------------------------------------------------------|
G|---10--10--10--10-10--------------------------------8--8--8--8-8-------------|
D|---10--10--10--10-10-11--11--11--11-11-6--6--6--6-6-8--8--8--8-8-------------|
A|----8---8---8---8--8-11--11--11--11-11-6--6--6--6-6-6--6--6--6-6-------------|
E|----------------------9---9---9---9--9-4--4--4--4-4--------------------------| 

Guitar 2
e|-----------------------------------------------------------------------------|
B|-----------------------------------------------------------------------------|
G|---13--12------------13--12------------13-12--------13-12-15-----------------|
D|-----------13----------------13--------------13------------------------------|
A|-----------------------------------------------------------------------------|
E|-----------------------------------------------------------------------------|

Guitar 1
e|-----------------------------------------------------------------------------|
B|-----------------------------------------------------------------------------|
G|---10--10--10--10-10--------------------------------8--8--8--8-8-------------|
D|---10--10--10--10-10-11--11--11--11-11-6--6--6--6-6-8--8--8--8-8-------------|
A|----8---8---8---8--8-11--11--11--11-11-6--6--6--6-6-6--6--6--6-6-------------|
E|----------------------9---9---9---9--9-4--4--4--4-4--------------------------| 

Guitar 2
e|-----------------------------------------------------------------------------|
B|-----------------------------------------------------------------------------|
G|---13--12------------13--12------------13-12--------13-12-15-----------------|
D|-----------13----------------13--------------13------------------------------|
A|-----------------------------------------------------------------------------|
E|-----------------------------------------------------------------------------|

Verse
Guitar 1
e|-----------------------------------------------------------------------------|
B|-----------------------------------------------------------------------------|
G|-----------------------------------------------------------------------------|
D|--10-10-10----------------------------------------------8-8-8----------------|
A|---8--8--8-----------------------11-11-11-------6-6-6---6-6-6----------------|
E|----------------------------------9--9--9-------4-4-4------------------------|
repeat 3x

Guitar 1
e|-----------------------------------------------------------------------------|
B|-----------------------------------------------------------------------------|
G|-----------------------------------------------------------------------------|
D|--10-10-10-------------------------------------------------------8-8-8-------|
A|---8--8--8-----------------------11-11-11-11-11-11-11----6-6-6-6-6-6-6-------|
E|----------------------------------9--9--9--9--9--9--9----4-4-4-4-------------|
                                   ---------palm mute---------

Chorus
Guitar 1
e|-----------------------------------------------------------------------------|
B|-----------------------------------------------------------------------------|
G|---10--10--10--10-10--------------------------------8--8--8--8-8-10-10-10----|
D|---10--10--10--10-10-11--11--11--11-11-6--6--6--6-6-8--8--8--8-8-10-10-10----|
A|----8---8---8---8--8-11--11--11--11-11-6--6--6--6-6-6--6--6--6-6--8--8--8----|
E|----------------------9---9---9---9--9-4--4--4--4-4--------------------------| 
repeat 2x

Guitar 1
e|-----------------------------------------------------------------------------|
B|-----------------------------------------------------------------------------|
G|---10-10-10-10-10-10-------------------------------------8-------------------|
D|---10-10-10-10-10-10----11-11-11-11-11-11----6-6-6-6-6-6-8-------------------|
A|----8--8--8--8--8--8----11-11-11-11-11-11----6-6-6-6-6-6-6-------------------|
E|-------------------------9--9--9--9--9--9----4-4-4-4-4-4---------------------| 
     -palm mute-          ---p.m.----          --p.m.-

silence, then pick slide, then...

Bridge
Guitar 1
e|-----------------------------------------------------------------------------|
B|-----------------------------------------------------------------------------|
G|---10--10--10--10-10--------------------------------8--8--8--8-8-------------|
D|---10--10--10--10-10-11--11--11--11-11-6--6--6--6-6-8--8--8--8-8-------------|
A|----8---8---8---8--8-11--11--11--11-11-6--6--6--6-6-6--6--6--6-6-------------|
E|----------------------9---9---9---9--9-4--4--4--4-4--------------------------| 

Guitar 2
e|-----------------------------------------------------------------------------|
B|-----------------------------------------------------------------------------|
G|---13--12------------13--12------------13-12--------13-12-15-----------------|
D|-----------13----------------13--------------13------------------------------|
A|-----------------------------------------------------------------------------|
E|-----------------------------------------------------------------------------|

Guitar 1
e|-----------------------------------------------------------------------------|
B|-----------------------------------------------------------------------------|
G|---10--10--10--10-10--------------------------------8--8--8--8-8-------------|
D|---10--10--10--10-10-11--11--11--11-11-6--6--6--6-6-8--8--8--8-8-------------|
A|----8---8---8---8--8-11--11--11--11-11-6--6--6--6-6-6--6--6--6-6-------------|
E|----------------------9---9---9---9--9-4--4--4--4-4--------------------------|

Guitar 2
e|-----------------------------------------------------------------------------|
B|-----------------------------------------------------------------------------|
G|---13--12------------13--12------------13-12--------13-12-15-----------------|
D|-----------13----------------13--------------13------------------------------|
A|-----------------------------------------------------------------------------|
E|-----------------------------------------------------------------------------|
[ Tab from: http://www.guitartabs.cc/tabs/a/anti_flag/911_for_peace_tab_ver_2.html ]
Verse
Guitar 1
e|-----------------------------------------------------------------------------|
B|-----------------------------------------------------------------------------|
G|-----------------------------------------------------------------------------|
D|--10-10-10----------------------------------------------8-8-8----------------|
A|---8--8--8-----------------------11-11-11-------6-6-6---6-6-6----------------|
E|----------------------------------9--9--9-------4-4-4------------------------|
repeat 1x

Guitar 1
e|---------------------|r    |-------------------------------------------------|
B|---------------------|e    |-------------------------------------------------|
G|--------------10-10--|p  1 |-------------------------------------------------|
D|--10-10-10-10-10-10--|e  x |----------------------------8-8-8----------------|
A|---8--8--8--8--8--8--|a    |-----11-11-11-------6-6-6---6-6-6----------------|
E|---------------------|t    |------9--9--9-------4-4-4------------------------|
    -palm mute-

Guitar 1
e|---------------------|r    |-------------------------------------------------|
B|---------------------|e    |-------------------------------------------------|
G|--------------10-10--|p  1 |-------------------------------------------------|
D|--10-10-10-10-10-10--|e  x |-------------------------------------8-8-8-------|
A|---8--8--8--8--8--8--|a    |-----11-11-11-11-11-11-11----6-6-6-6-6-6-6-------|
E|---------------------|t    |------9--9--9--9--9--9--9----4-4-4-4-------------|
    -palm mute-                    ---------palm mute---------

repeat chorus
Guitar 1
e|-----------------------------------------------------------------------------|
B|-----------------------------------------------------------------------------|
G|---10--10--10--10-10--------------------------------8--8--8--8-8-10-10-10----|
D|---10--10--10--10-10-11--11--11--11-11-6--6--6--6-6-8--8--8--8-8-10-10-10----|
A|----8---8---8---8--8-11--11--11--11-11-6--6--6--6-6-6--6--6--6-6--8--8--8----|
E|----------------------9---9---9---9--9-4--4--4--4-4--------------------------| 
repeat 2x

Guitar 1
e|-----------------------------------------------------------------------------|
B|-----------------------------------------------------------------------------|
G|---10-10-10-10-10-10-------------------------------------8-------------------|
D|---10-10-10-10-10-10----11-11-11-11-11-11----6-6-6-6-6-6-8-------------------|
A|----8--8--8--8--8--8----11-11-11-11-11-11----6-6-6-6-6-6-6-------------------|
E|-------------------------9--9--9--9--9--9----4-4-4-4-4-4---------------------| 
     -palm mute-          ---p.m.----          --p.m.-

then...
Guitar 1
e|-----------------------------------------------------------------------------|
B|-----------------------------------------------------------------------------|
G|---10-10-10-10-10----------------------------------------------8--8----------|
D|---10-10-10-10-10----------------------11--11--11--11-11-6--6--8--8----------|
A|----8--8--8--8--8----------------------11--11--11--11-11-6--6--6--6----------|
E|----------------------------------------9---9---9---9--9-4--4----------------| 

Guitar 2
e|-----------------------------------------------------------------------------|
B|-----------------------------------------------------------------------------|
G|---10-10-10-------/10~10\-/10~10\-/10~10\------------------------------------|
D|-----------------------------------------------------------------------------|
A|-----------------------------------------------------------------------------|
E|-----------------------------------------------------------------------------|
repeat 3x

Guitar 1
e|-----------------------------------------------------------------------------|
B|-----------------------------------------------------------------------------|
G|---------------------------8--8--------------------------------8--8----------|
D|---11--11--11--11-11-6--6--8--8--------11--11--11--11-11-6--6--8--8----------|
A|---11--11--11--11-11-6--6--6--6--------11--11--11--11-11-6--6--6--6----------|
E|----9---9---9---9--9-4--4---------------9---9---9---9--9-4--4----------------| 

Guitar 1
e|-----------------------------------------------------------------------------|
B|-----------------------------------------------------------------------------|
G|-------------------------------------------------------------------------10--|
D|---11--11--11--11-11-13--13-11-10------11--11--11--11-11-13--------------10--|
A|---11--11--11--11-11-13--13-11-10------11--11--11--11-11-13---------------8--|
E|----9---9---9---9--9-11--11--9--8-------9---9---9---9--9-11------------------| 

Guitar 2
e|-----------------------------------------------------------------------------|
B|-----------------------------------------------------------------------------|
G|-----------------------------------------------------------------------------|
D|-------------------------------------------------------------13--11--10------|
A|-----------------------------------------------------------------------------|
E|-------------------------------------------------------------------------13--|

then guit 1 play a couple of fast palm muted high note while guit 2 play some 
feedback note, then...

Guitar 1
e|------------------------------------------------------------------------------|
B|------------------------------------------------------------------------------|
G|---10-10-10-10-10-10-10-10--6-6-6-6-6-6-6---------------------8-8-8-8-8-8-8-8-|
D|---10-10-10-10-10-10-10-10--6-6-6-6-6-6-6----6-6-6-6-6-6-6-6--8-8-8-8-8-8-8-8-|
A|---8--8--8--8--8--8--8---8--4-4-4-4-4-4-4----6-6-6-6-6-6-6-6--6-6-6-6-6-6-6-6-|
E|---------------------------------------------4-4-4-4-4-4-4-4------------------| 
     ----------------------- palm mute -----------------------------------------
repeat 1

back to the chorus
Guitar 1
e|-----------------------------------------------------------------------------|
B|-----------------------------------------------------------------------------|
G|---10--10--10--10-10--------------------------------8--8--8--8-8-------------|
D|---10--10--10--10-10-11--11--11--11-11-6--6--6--6-6-8--8--8--8-8-------------|
A|----8---8---8---8--8-11--11--11--11-11-6--6--6--6-6-6--6--6--6-6-------------|
E|----------------------9---9---9---9--9-4--4--4--4-4--------------------------| 
repeat 2x

Guitar 1
e|-----------------------------------------------------------------------------|
B|-----------------------------------------------------------------------------|
G|---10-10-10-10-10-10-------------------------------------8-------------------|
D|---10-10-10-10-10-10----11-11-11-11-11-11----6-6-6-6-6-6-8-------------------|
A|----8--8--8--8--8--8----11-11-11-11-11-11----6-6-6-6-6-6-6-------------------|
E|-------------------------9--9--9--9--9--9----4-4-4-4-4-4---------------------| 
     -palm mute-          ---p.m.----          --p.m.-

Guitar 1
e|-----------------------------------------------------------------------------|
B|-----------------------------------------------------------------------------|
G|---10-10-10-10-10-10-------------------------------------8-------------------|
D|---10-10-10-10-10-10----11-11-11-11-11-11----6-6-6-6-6-6-8-------------------|
A|----8--8--8--8--8--8----11-11-11-11-11-11----6-6-6-6-6-6-6-------------------|
E|-------------------------9--9--9--9--9--9----4-4-4-4-4-4---------------------| 
     -palm mute-          ---p.m.----          --p.m.-

Guitar 1
e|-----------------------------------------------------------------------------|
B|-----------------------------------------------------------------------------|
G|---10-10-10-10-10-10-10------------------------------------------------------|
D|---10-10-10-10-10-10-10------------------------------------------------------|
A|----8--8--8--8--8--8--8------------------------------------------------------|
E|-----------------------------------------------------------------------------| 
     -palm mute-          





It's in the paper every day
You see it in the headlines and you feel so sick
As another life leaves this world - this world so full of hate - but short! 
Short on compassion, short on humanity
Asking myself in vain, shaken by the shock
"Do we even have a chance?"


chorus
I don't want to die
I don't want to kill
We are all human 
It's time to prove it


This is a plea for peace (world peace)
To the oppressors of the world (and to)
To the leaders of nations, 
Corporate profit takers,
To the every day citizen
Greed, envy, fear, hate- the competition has to stop!
When you see someone down - now is the time to pick `em up
Set our difference aside and never look back!


chorus
I don't want to die
I don't want to kill
We are all human 
It's time to prove it


Isn't everybody tired of the fighting? 
Killing? 
Dying? 
Hatred?
Violence?


Comments