Anti Flag - 911 For Peace Chords & Tabs

 

911 For Peace Chords & Tabs

Anti Flag Chords & Tabs

Version: 3 Type: Bass Tab 0 ratings
1 star 2 stars 3 stars 4 stars 5 stars
comments

911 For Peace Bass Tab

911 for peace - Anti-Flag (the real tabs)

------|-----------|------|-----------|------|------|------|
------|-----------|------|-----------|------|------|------|
------|double rest|-4-4-4|double rest|------|-6-6-6|-8-8-8|
-1-1-1|-----------|------|-----------|-4-4-4|------|------|

-----------|----------------|--------|--------|------------|
-----------|----------------|--------|--------|------------|
double rest|-4-4-4-4-4-4-4-4|--------|-6-6-6-6|-8--8--8-8-8|
-----------|----------------|-4-4-4-4|--------|------------|

------------|------------|------------|------------|
------------|------------|------------|------------|
-4--4--4-4-4|------------|-6--6--6-6-6|-8--8--8-8-8|
------------|-4--4--4-4-4|------------|------------|

------------|------------|------------|-----|
------------|------------|------------|-----|
-4--4--4-4-4|------------|-6--6--6-6-6|8-8-8|
------------|-4--4--4-4-4|------------|-----|

-----------|------|----|------|------|------|
-----------|------|----|------|------|------|
double rest|-4-4-4|rest|------|-6-6-6|-8-8-8|
-----------|------|----|-4-4-4|------|------|


-----------|------|----|------|------|
-----------|------|----|------|------|
double rest|-4-4-4|rest|------|-6-6-6|
-----------|------|----|-4-4-4|------|

----------------|----------------|----------------|
----------------|----------------|----------------|
-8-8-8-8-8-8-8-8|-8-8-8-8-8-8-8-8|-4-4-4-4-4-4-4-4|
----------------|----------------|----------------|


----------------|----------------|----------------|----------------|
----------------|----------------|----------------|----------------|
---------6-6-6-6|-8-8-8-8-8-8-8-8|-8-8-8-8-8-8-8-8|-4-4-4-4-4-4-4-4|
-4-4-4-4--------|----------------|----------------|----------------|

--------|--------|--------|--------|
-6-6-5--|-6-6-5-8|--------|--------|
-------6|--------|--------|--------| X4 (on the 4th time hold 6 on E string)
--------|--------|-4-4-3-4|-6-4-3-4|

-----|------------|
-----|------------|
-Rest|-8--8--8-8-8|
-----|------------|

------------|------------|------------|------------|
------------|------------|------------|------------|
-4--4--4-4-4|------------|-6--6--6-6-6|-8--8--8-8-8|
------------|-4--4--4-4-4|------------|------------|
[ Tab from: http://www.guitartabs.cc/tabs/a/anti_flag/911_for_peace_btab_ver_3.html ]
------------|------------|------------|-----|
------------|------------|------------|-----|
-4--4--4-4-4|------------|-6--6--6-6-6|8-8-8|
------------|-4--4--4-4-4|------------|-----|

------|----|------|------|------|
------|----|------|------|------|
-4-4-4|rest|------|-6-6-6|-8-8-8|
------|----|-4-4-4|------|------|

-----------|------|----|------|------| \
-----------|------|----|------|------|  \
double rest|-4-4-4|rest|------|-6-6-6|   \
-----------|------|----|-4-4-4|------|    \
                                           \  X2
--------|--------|                         /
-6-6-5--|-6-6-5-8|                        /
-------6|--------|                       /
--------|--------|                      /  

----------------|----------------|
----------------|----------------|
-4-4-4-4-4-4-4-4|---------6-6-6-6|
----------------|-4-4-4-4--------|

--------|--------|--------|--------|
-6-6-5--|-6-6-5-8|--------|--------|
-------6|--------|--------|--------| X4 (on the 4th time hold 6 on E string)
--------|--------|-4-4-3-4|-6-4-3-4|

--------------------------|
-----------6-6-6-6-8-8-8-8|  
-8-8-8-8-8----------------|  X3
--------------------------|

----------------|---------8-8-8-8|
----------------|-6-6-6-6--------|
-4-4-4-4-4-4-4-4|----------------|
----------------|----------------|


----------------|----------------|---------6-6-6-6|-8|
----------------|----------------|-6-6-6-6--------|--|
-4-4-4-4--------|-6-6-6-6-3-3-3-3|----------------|--|
---------4-4-4-4|----------------|----------------|--|

----------------|----------------|----------------|
----------------|----------------|----------------|
-8-8-8-8-8-8-8-8|-4-4-4-4-4-4-4-4|----------------|
----------------|----------------|-4-4-4-4-4-4-4-4|

----------------|----------------|----------------|
----------------|----------------|----------------|
-6-6-6-8-6-6-6-6|-8-8-8-8-8-8-8-8|-4-4-4-4-4-4-4-4|
----------------|----------------|----------------|

----------------|--|
----------------|--|
----------------|-6|
-4-4-4-4-4-4-4-4|--|

--------|--------|--------|--------|
-6-6-5--|-6-6-5-8|--------|--------|
-------6|--------|--------|--------|  X3
--------|--------|-4-4-3-4|-6-4-3-4|

--------|--------|----------------|
-6-6-5--|-6-6-5-8|----------------|
-------6|--------|----------------| x2  
--------|--------|-4-4-4-4-4-4-4-4|
Comments