Anti Flag - 20 Years Of Hell Chords & Tabs

 

20 Years Of Hell Chords & Tabs

Anti Flag Chords & Tabs

Version: 2 Type: Bass Tab 0 ratings
1 star 2 stars 3 stars 4 stars 5 stars
comments

20 Years Of Hell Bass Tab

Anti-Flag
20 years of hell
tabbed by: intense@westol.com

Intro:
-----------------------------------------
-----------------------------------------
-4-4-4-4-4-4-4-4-7-7-7-2-2-2-4-4-4-4-4-4-
-----------------------------------------
[ Tab from: http://www.guitartabs.cc/tabs/a/anti_flag/20_years_of_hell_btab_ver_2.html ]
Pre Verse:
-----------------------------------------------------------
-------------------------------------------9-9-7-7---------
-4-4-4-4-4-4-7-7-7-7-7-7-----9-9-7-7---------------9-9-7-7-
-------------------------7-7---------10-10-----------------

1st part of Verse:
-----------------------------------------
---6-6-4-4-------9-9-7-7-----------------
-4---------7-7-7---------10-10---9-9-7-7-
-------------------------------7---------

-----------------------
-------9-9-7-7---------
---------------9-9-7-7-
-10-10-----------------

rest of song soon to come when i feel like figuring it out

Comments