Anti Anti - Totally Messed Chords & Tabs

 

Totally Messed Chords & Tabs

Anti Anti Chords & Tabs

Version: 1 Type: Tab 0 ratings
1 star 2 stars 3 stars 4 stars 5 stars
comments

Totally Messed Tab

Intro
e ----------------------------------------------------------
B-----------------------------------------------------------
G--5--5-5----------------------2--2-2-----------------------
D--5--5-5-2-2-3-2-3-3-3--------2--2-2-2-2-3-0-3--3-3-5--5-5-(2times)
A--3--3-3---------3-3-3-2-2-3--0--0-0---------3--3-3-5--5-5-
E-----------------1-1-1-----------------------1--1-1-3--3-3-


Verse
e------------------------------------------------------------------
B------------------------------------------------------------------
G------------------------------------------------------------------
D------------------3-3-3-3-3-3-3-3-----------------3-3-3-3-3-3-3-3-
A--3-3-3-3-3-3-3-3-3-3-3-3-3-3-3-3-----------------3-3-3-3-3-3-3-3-
E------------------1-1-1-1-1-1-1-1-3-3-3-3-3-3-3-3-1-1-1-1-1-1-1-1-
[ Tab from: http://www.guitartabs.cc/tabs/a/anti_anti/totally_messed_tab.html ]
Chorus
e------------------------------------------------------------------
B------------------------------------------------------------------
G--2-2-2-2-2-2-2-2-----------------5-5-5-5-5-5-5-5-----------------
D--2-2-2-2-2-2-2-2-3-3-3-3-3-3-3-3-5-5-5-5-5-5-5-5-5-5-5-5-5-5-5-5-(4times)
A--0-0-0-0-0-0-0-0-3-3-3-3-3-3-3-3-3-3-3-3-3-3-3-3-5-5-5-5-5-5-5-5-
E------------------1-1-1-1-1-1-1-1-----------------3-3-3-3-3-3-3-3-

Solo
e--5--7-8-5--7-8-10-8-7-8--8-10-12-8-10-12-7----
B-----------------------------------------------
G-----------------------------------------------
D-----------------------------------------------(2times)
A-----------------------------------------------
E-----------------------------------------------

Chorus (2 times)

Bridge

Ending Chord
e--0-
B--1-
G--2-
D--2-(Hold)
A--0-
E----
Comments