Anti-heros - Criminal Mischief Chords & Tabs

 

Criminal Mischief Chords & Tabs

Anti-heros Chords & Tabs

Version: 1 Type: Bass Tab

Criminal Mischief Bass Tab

ANTI-HEROS - CRIMINAL MISCHIEF BY TRENDMONSTER
                                                    
G||---------------------|---------------------------|
D||---------------------|--2--2-------2--2--2-------|
A||----------------2----|--------4--2---------4--2--|
E||--0--------4---------|---------------------------|

[ Tab from: http://www.guitartabs.cc/tabs/a/anti-heros/criminal_mischief_btab.html ]
                                                        
---------------------------|---------------------------|
---------------------------|---------------------------|
--4--4-------4--4--4-------|---------------------------|
--------5--4---------5--4--|--5--5--2--0-5--5--5-2--0--|


                             
---------------------------||
---------------------------||
--2--2-------2--2--2-------||
--------4--2---------4--2--||

I tabbed this by ear, it sounds pretty close if not perfect.  Pretty fun bass line to play.
You can use fillers for the rest of the song, but this is the main part.  Enjoy!