Anti-flag - The Ghosts Of Alexandria Chords & Tabs

 

The Ghosts Of Alexandria Chords & Tabs

Anti-flag Chords & Tabs

Version: 1 Type: Tab 0 ratings
1 star 2 stars 3 stars 4 stars 5 stars
comments

The Ghosts Of Alexandria Tab

   
Anti-Flag - The ghosts of Alexandria
------------------------------------------------------------------------------
First tab, it probably contains a lot of errors. Point them out.
This song contains a lot of dead tones, you have to hear them for yourself.

Intro Riff:
e|--------------------------------------------------------|
B|--------------------------------------------------------|
G|---------------9------------------------9-------9-------|
D|-----9-7-9-7-9---7-9-7-6------9-7-9-7-9---7-9-7---------| Repeat X2
A|---7------------------------7---------------------------|
E|--------------------------------------------------------|

Verse:
     B   E D# B   E D#  B   E D#  G#  
e|--------------------------------------------------------|
B|--------------------------------------------------------|
G|--------------------------------------------------------|
D|-------9-9------9-9------9-9---------99999--------------|
A|---9---7-6--9---7-6--9---7-6---6-----77777--------------|
E|---7--------7--------7---------4------------------------|
[ Tab from: http://www.guitartabs.cc/tabs/a/anti-flag/the_ghosts_of_alexandria_tab.html ]
     B   E D# B   E D#     E D#  G#  F# 
e|--------------------------------------------------------|
B|--------------------------------------------------------|
G|--------------------------------------------------------|
D|-------9-9------9-9------9-9----------------------------|
A|---9---7-6--9---7-6--9---7-6---6---4--------------------|
E|---7--------7--------7---------4---2--------------------|

Pre-Chorus:
       E   B  G#   B   E   B   G#  B   E   B   G#  B F#
e|--------------------------------------------------------|
B|--------------------------------------------------------|
G|--------------------------------------------------------|
D|---99999-----------99999-----------99999----------------|
A|---77777-9-66666-9-77777-9-66666-9-77777-9-66666-9-4----|
E|---------7-44444-7-------7-44444-7-------7-44444-7-2----|

Chorus:
     B   E D# G#   B   B E D#  G#  F# 
e|--------------------------------------------------------|
B|--------------------------------------------------------|
G|--------------------------------------------------------|
D|-------9-9---------------9-9----------------------------|
A|---9---7-6--6---99---9---7-6---6---9--------------------|
E|---7--------4---77---7---------4---7--------------------|

Intro Riff

Verse

Chorus

Pre-Chorus

Outro:
     B     G#  F#
e|-----------------|
B|-----------------|
G|-----------------|
D|-----------------| Repeat a lot of times
A|---9-----6---2---|
E|---7-----4---4---|

End on B
Comments