Anthrax - Safe Home Chords & Tabs

 

Safe Home Chords & Tabs

Anthrax Chords & Tabs

Version: 1 Type: Bass Tab 0 ratings
1 star 2 stars 3 stars 4 stars 5 stars
comments

Safe Home Bass Tab

   
                              SAFE HOME (Bassline)
                             As recorded by Anthrax
                  (From the 2003 Album WE'VE COME FOR YOU ALL)

Words and Music by Anthrax
Arranged by Anthrax

Gtr I (Db Ab Db Gb) - 'Bass'


 Intro
  Q=75
 3/4       4/4
 Gtr I  
  H.        W
|---------|--------|
|---------|--------|
|---------|--------|
|---------|--------|


  W
|-------|
|-------|
|-------|
|-------|


   Verse
    $
    S S S S S S S S S S S S S S S S   S S S S S S S S S S S S S S S S
||----------------------------------|-----------------------------------||
||o---------------------------------|----------------------------------o||
||o---------------------------------|----------------------------------o||
||--2---2---2---2-0-2-5-2---2---2-0-|-2-5-2---2---2-0-2-5-2-0-2-5-2-0---||


    S S S S S S S S S S S S S S S S   S S S S S S S S S S S S S S S S
||----------------------------------|-----------------------------------||
||o---------------------------------|----------------------------------o||
||o---------------------------------|----------------------------------o||
||--2---2---2---2-0-2-5-2---2---2-0-|-2-7-2---2---2-0-2-5-2-0-2-7-2-0---||


 Pre-Chorus
  W          W          W          W
|----------|----------|----------|------|
|----------|----------|----------|------|
|-2--------|----------|-2--------|------|
|----------|-5--------|----------|-5----|


  S S S S S S S S S S S S S S S S   S S S S S S S S S S S S S S S S
|---------------------------------|-----------------------------------|
|---------------------------------|-----------------------------------|
|-2-2-2-2-2-2-2-2-2-2-2-2-2-2-2-2-|-----------------------------------|
|---------------------------------|-5-5-5-5-5-5-5-5-5-5-5-5-5-5-5-5---|


  S S S S S S S S S S S S S S S S    S S S S S S S S S S S S S S S S
|---------------------------------|------------------------------------|
|---------------------------------|-/5-5-5-5-5-5-5-5-5-5-5-5-----------|
|-2-2-2-2-2-2-2-2-2-2-2-2-2-2-2-2-|--------------------------5-4-------|
|---------------------------------|------------------------------5-4---|


                                   3/4
  S S S S S S S S S S S S S S S S   H.
|---------------------------------|-------|
|---------------------------------|-------|
|---------------------------------|-------|
|-2-2-2-2-2-2-2-0-2-4-2-0-2-4-2-0-|-5-----|


 Chorus
 4/4
  S S S S S S S S S S S S S S S S   S S S S S S S S S S S S S S S S
|---------------------------------|---------------------------------|
|---------------------------------|---------------------------------|
|-2-2-2-2-2-2-2-2-2-2-2-2-2-2-2-2-|---------------------------------|
|---------------------------------|-5-5-5-5-5-5-5-5-4-4-4-4-4-4-4-4-|


                                   3/4
  S S S S S S S S S S S S S S S S   H.
|---------------------------------|-------|
|---------------------------------|-------|
|-2-2-2-2-2-2-2-2-----------------|-------|
|-----------------2-2-2-0-2-4-2-0-|-5-----|


 4/4
  S S S S S S S S S S S S S S S S
|---------------------------------|
|---------------------------------|
|-2-2-2-2-2-2-2-2-2-2-2-2-2-2-2-2-|
|---------------------------------|


             To Coda         D.S. al Coda
 3/4                   4/4
  E S S +S  S S S E E   W
|---------------------|--------------|
|---------------------|--------------|
|---------------------|-2------------|
|-5-5-5-(5)-5-5-5-4-4-|--------------|
                        
                           
 Break
  &
  Gtr I
  W          W          W          W
|----------|----------|----------|------|
|----------|----------|----------|------|
|-2--------|----------|-2--------|------|
|----------|-5--------|----------|-5----|


  H=H
  S S S S S S S S S S S S S S S S   S S S S S S S S S S S S S S S S
|---------------------------------|---------------------------------|
|---------------------------------|---------------------------------|
|-2-2-2-2-2-2-2-2-2-2-2-2-2-2-2-2-|---------------------------------|
|---------------------------------|-5-5-5-5-5-5-5-5-5-5-5-5-5-5-5-5-|


  S S S S S S S S S S S S S S S S   S S S S S S S S S S S S S S S S
|---------------------------------|------------------------------------|
|---------------------------------|------------------------------------|
|-2-2-2-2-2-2-2-2-2-2-2-2-2-2-2-2-|------------------------------------|
|---------------------------------|-5-5-5-5-5-5-5-5-5-5-5-5-5-5-5-5----|


  Q=79
  S S S S S S S S S S S S S S S S   S S S S S S S S S S S S S S S S
|---------------------------------|-----------------------------------|
|---------------------------------|-----------------------------------|
|-2-2-2-2-2-2-2-2-2-2-2-2-2-2-2-2-|-2-2-2-2-2-2-2-2-2-2-2-2-2-2-2-2---|
|---------------------------------|-----------------------------------|

[ Tab from: http://www.guitartabs.cc/tabs/a/anthrax/safe_home_btab.html ]
 Breakdown
  S S S S S S S S S S S S S S S S   S S S S S S S S S S S S S S S S
|---------------------------------|-----------------------------------|
|---------------------------------|-----------------------------------|
|-2-2-2-2-2-2-2-2-2-2-2-2-2-2-2-2-|-0-0-0-0-0-0-0-0-0-0-0-0-0-0-0-0---|
|---------------------------------|-----------------------------------|


  S S S S S S S S S S S S S S S S   S S S S S S S S S S S S S S S S
|---------------------------------|-----------------------------------|
|---------------------------------|-----------------------------------|
|---------------------------------|-----------------------------------|
|-5-5-5-5-5-5-5-5-5-5-5-5-5-5-5-5-|-4-4-4-4-4-4-4-4-4-4-4-4-4-4-4-4---|


  S S S S S S S S S S S S S S S S   S S S S S S S S S S S S S S S S
|---------------------------------|-----------------------------------|
|---------------------------------|-----------------------------------|
|-2-2-2-2-2-2-2-2-2-2-2-2-2-2-2-2-|-4-4-4-4-4-4-4-4-4-4-4-4-4-4-4-4---|
|---------------------------------|-----------------------------------|


  S S S S S S S S S S S S S S S S   S S S S S S S S S S S S S S S S
|---------------------------------|-----------------------------------|
|---------------------------------|-----------------------------------|
|---------------------------------|-----------------------------------|
|-5-5-5-5-5-5-5-5-5-5-5-5-5-5-5-5-|-4-4-4-4-4-4-4-4-4-4-4-4-4-4-4-4---|


 Guitar Solo
  S S S S S S S S S S S S S S S S   S S S S S S S S S S S S S S S S
|---------------------------------|-----------------------------------|
|---------------------------------|-----------------------------------|
|-2-2-2-2-2-2-2-2-2-2-2-2-2-2-2-2-|-0-0-0-0-0-0-0-0-0-0-0-0-0-0-0-0---|
|---------------------------------|-----------------------------------|


  S S S S S S S S S S S S S S S S   S S S S S S S S S S S S S S S S
|---------------------------------|-----------------------------------|
|---------------------------------|-----------------------------------|
|---------------------------------|-----------------------------------|
|-5-5-5-5-5-5-5-5-5-5-5-5-5-5-5-5-|-4-4-4-4-4-4-4-4-4-4-4-4-4-4-4-4---|


  S S S S S S S S S S S S S S S S   S S S S S S S S S S S S S S S S
|---------------------------------|-----------------------------------|
|---------------------------------|-----------------------------------|
|-2-2-2-2-2-2-2-2-2-2-2-2-2-2-2-2-|-4-4-4-4-4-4-4-4-4-4-4-4-4-4-4-4---|
|---------------------------------|-----------------------------------|


  S S S S S S S S S S S S S S S S   S S S S S S S S S S S S S S S S
|---------------------------------|-----------------------------------|
|---------------------------------|-----------------------------------|
|---------------------------------|-----------------------------------|
|-0-0-0-0-0-0-0-0-0-0-0-0-0-0-0-0-|-4-4-4-4-4-4-4-4-4-4-4-4-4-4-4-4---|


                                   3/4
  S S S S S S S S S S S S S S S S   H.
|---------------------------------|-------|
|---------------------------------|-------|
|---------------------------------|-------|
|-2-2-2-2-2-2-2-2-2-2-2-2-2-2-2-2-|-5-----|


 Out-Chorus
 4/4
  S S S S S S S S S S S S S S S S   S S S S S S S S S S S S S S S S
|---------------------------------|----------------------------------|
|---------------------------------|----------------------------------|
|-2-2-2-2-2-2-2-2-2-2-2-2-2-2-2-2-|----------------------------------|
|---------------------------------|-5-5-5-5-5-5-5-5-4-4-4-4-4-4-4-4--|


                                   3/4
  S S S S S S S S S S S S S S S S   H.
|---------------------------------|-------|
|---------------------------------|-------|
|-2-2-2-2-2-2-2-2-----------------|-------|
|-----------------2-2-2-0-2-4-2-0-|-5-----|


   4/4                               3/4
    S S S S S S S S S S S S S S S S   S S S S S S S S S S S S
||----------------------------------|-----------------------------||
||o---------------------------------|----------------------------o||
||o-2-2-2-2-2-2-2-2-2-2-2-2-2-2-2-2-|----------------------------o||
||----------------------------------|-5-5-5-5-5-5-5-5-4-4-4-4-----||


 4/4
  S S S S S S S S S S S S S S S S   S S S S S S S S S S S S S S S S
|---------------------------------|----------------------------------|
|---------------------------------|----------------------------------|
|-2-2-2-2-2-2-2-2-2-2-2-2-2-2-2-2-|----------------------------------|
|---------------------------------|-5-5-5-5-5-5-5-5-4-4-4-4-4-4-4-4--|


                                   3/4
  S S S S S S S S S S S S S S S S   E S S +S  S S S E E
|---------------------------------|-----------------------|
|---------------------------------|-----------------------|
|-2-2-2-2-2-2-2-2-----------------|-----------------------|
|-----------------2-2-2-0-2-4-2-0-|-5-5-5-(5)-5-5-5-4-4---|


 4/4
  S S S S S S S S S S S S S S S S   E S S +S  S S S E E +Q
|---------------------------------|----------------------------*|
|---------------------------------|----------------------------*|
|-2-2-2-2-2-2-2-2-2-2-2-2-2-2-2-2-|----------------------------*|
|---------------------------------|-5-5-5-(5)-5-5-5-4-4-(4)----*|
Comments