Anthrax - Refuse To Be Denied Chords & Tabs

 

Refuse To Be Denied Chords & Tabs

Anthrax Chords & Tabs

Version: 1 Type: Tab 0 ratings
1 star 2 stars 3 stars 4 stars 5 stars
comments

Refuse To Be Denied Tab

Refuse To Be Denied
We’ve Come For You All
Tabbed By Chris Frazier
Drop D half Step Down
e--------------------------------------------------------------------
B--------------------------------------------------------------------
G--------------------------------------------------------------------
D-----0--------------0-----------------------------------------------x4
A-------0------0-------0---------------------------------------------
D---0------3h5-----0------3--5---------------------------------------

e---------------------------------------------------------------------
B---------------------------------------------------------------------
G---------------------------------------------------------------------
D--x-x-x-------0---------------0--------------------------------------
A--x-x-x----------0------0-------0------------------------------------
D--x-x-x-----0------3h5------0------3--5------------------------------


e----------------------------------------------------------------------
B----------------------------------------------------------------------
G--7-7-7--5-5-5--7-7-7-7-7-7--7-7-7--5-5-5--7-7-7-7-7-7----------------
D--x-x-x--x-x-x--x-x-x-x-x-x--x-x-x--x-x-x--x-x-x-x-x-x----------------
A--5-5-5—-3-3-3--5-5-5-5-5-5--5-5-5—-3-3-3--5-5-5-5-5-5----------------
D----------------------------------------------------------------------

e----------------------------------------------------------------------
B----------------------------------------------------------------------
G--7-7-7--5-5-5--7-7-7-7-7-7--7-7-7-10--10-10----12-12-12--14--14—14---
D--x-x-x--x-x-x--x-x-x-x-x-x--x-x-x--x---x--x----x--x--x---x---x---x---
A--5-5-5—-3-3-3--5-5-5-5-5-5—-5-5-5—-8---8--8----10-10-10--12--12--12--
D----------------------------------------------------------------------

e--------------------------------------------------------------------
B--------------------------------------------------------------------
G--------------------------------------------------------------------
D-----0--------------0-----------------------------------------------x8
A-------0------0-------0---------------------------------------------
D---0------3h5-----0------3--5---------------------------------------

e---------------------------------------------------------------------
B---------------------------------------------------------------------
G---------------------------------------------------------------------
D---8888888888-8-7-6-555555--/101010101010----------------------------
A---8888888888-8-7-6-555555--/101010101010----------------------------
D---8888888888—8-7-6-555555--/101010101010----------------------------

[ Tab from: http://www.guitartabs.cc/tabs/a/anthrax/refuse_to_be_denied_tab.html ]
e—---------------------------------------------------------------------
B----------------------------------------------------------------------
G-----------------------------------7-7-7--10-10-10--12-12-12--14-14-14
D-12-12-12--10-10-10--0-0-0--3-5-7--7-7-7--10-10-10--12-12-12--14-14-14
A-12-12-12--10-10-10--0-0-0--3-5-7--5-5-5---8--8--8--10-10-10--12-12-12
D-12-12-12--10-10-10--0-0-0--3-5-7-------------------------------------


e---------------------------------------------------------------------
B---------------------------------------------------------------------
G---------------------------------------------------------------------
D---8888888888-8-7-6-555555--/101010101010----------------------------
A---8888888888-8-7-6-555555--/101010101010----------------------------
D---8888888888—8-7-6-555555--/101010101010----------------------------

e---------------------------------------------------------------------
B---------------------------------------------------------------------
G---------------------------------------------------------------------
D-----0--------------0-----------------------------------------------x6
A-------0------0-------0----------------------------------------------
D---0------3h5-----0------3--5----------------------------------------

Interlude
e---------------------------------------------------------------------
B---------------------------------------------------------------------
G---------------------------------------------------------------------
D-------------------------------------------0--3-5-7------------------
A----5---5---5---6---6---6---5---5---5---5--0--3-5-7------------------
D--0---0---0---0---0---0---0---0---0---0----0--3-5-7------------------

e---------------------------------------------------------------------
B---------------------------------------------------------------------
G-------------------------------------------10-10-10------------------
D--------------------------------------------x--x--x------------------
A----5---5---5---6---6---6---5---5---5---5---8--8--8------------------
D--0---0---0---0---0---0---0---0---0---0------------------------------

e---------------------------------------------------------------------
B---------------------------------------------------------------------
G---------------------------------------------------------------------
D-------------------------------------------0--3-5-7------------------
A----5---5---5---6---6---6---5---5---5---5--0--3-5-7------------------
D--0---0---0---0---0---0---0---0---0---0----0--3-5-7------------------

e---------------------------------------------------------------------
B---------------------------------------------------------------------
G-------------------------------------------10-10-10------------------
D--------------------------------------------x--x--x------------------
A----5---5---5---6---6---6---5---5---5---5---8--8--8------------------
D--0---0---0---0---0---0---0---0---0---0------------------------------

You can figure out where it goes from there.
All the parts are on here except for the easy leads.
Comments