Anthrax - Random Acts Of Senseless Violence Chords & Tabs

 

Random Acts Of Senseless Violence Chords & Tabs

Anthrax Chords & Tabs

Version: 2 Type: Tab 0 ratings
1 star 2 stars 3 stars 4 stars 5 stars
comments

Random Acts Of Senseless Violence Tab

   
Band:  Anthrax
Album: Stomp 442
Song:  Random Acts Of Senseless Violence

Copyright (c)  (Elektra) (1995)
Version 1.0 - (29/03/05)

Transcribed By: Steve
Email:          stephen.elvidge1@ntlworld.com


.  - palm mute           /  - slide up to
\  - slide down to       ~  - vibrato
h  - hammer on           b  - Bend
p  - pull off            Suffixes for bend
t  - tap                 f  - full bend    h - half bend
ph - pinched harmonic    q  - quarter bend t - tap bend
*  - see comment         ^  - Hold bend    r release bend
x  - Stuccatto           ~  - vibrato bend
,  - slight palm mute    () - ghost note, sustained note
"  - tremolo note        <> - Trill

Tunning D A D G B E
 

 Intro
 
 Feedback
 
 Play this with very heavy percusive palm muting
 [---------------------PM------------------------]
E-------------------------------------------------|
B-------------------------------------------------|
G-------------------------------------------------|
D-------------------------------------------------|
A-2-5-2-2-5-2-2-5-2-2-5-2-2-5-2-2-5-2-2-5-2-2-5-2-|
E-2-5-2-2-5-2-2-5-2-2-5-2-2-5-2-2-5-2-2-5-2-2-5-2-|

  Guitar 1
  [---------------------PM------------------------]
E[-------------------------------------------------|
B[-------------------------------------------------|
G[-------------------------------------------------|
D[-------------------------------------------------|
A[-2-5-2-2-5-2-2-5-2-2-5-2-2-5-2-2-5-2-2-5-2-2-5-2-|
E[-2-5-2-2-5-2-2-5-2-2-5-2-2-5-2-2-5-2-2-5-2-2-5-2-| 
 [
 [Guitar 2
 [Siren guitar enters 2nd time
 [             Notes are trem picked.
 [             Either bend notes up or use trem
E[-------------------------------------------------|
B[-------------------------------------------------|
G[-------------------------------------------------|
D[-/5--------------------b6----------------------b-|
A[-------------------------------------------------|
E[-------------------------------------------------|

 Main riff
 The x indicates percusive palm muting. Fretting fingers should 
 be rested around the 2nd fret area.

  Guitar 1
           [-PM-]         [-PM-]         [-PM-]
E[--------------------------------------------------------------|
B[--------------------------------------------------------------|
G[--------------------------------------------------------------|
D[--------------------------------------------------------------|
A[-0-3p0-3p0-xxxx-0-3p0-3p0-xxxx-0-3p0-3p0-xxxx-0-3p0-3p0-0-12\-|
E[-0-3p0-3p0-xxxx-0-3p0-3p0-xxxx-0-3p0-3p0-xxxx-0-3p0-3p0-0-12\-|
 [
 [Guitar 2
 [Siren guitar
E[---------------------------------------------------------------|
B[---------------------------------------------------------------|
G[---------------------------------------------------------------|
D[b7----------------------------b8-------------b9----------------|
A[---------------------------------------------------------------|
E[---------------------------------------------------------------|
[ Tab from: http://www.guitartabs.cc/tabs/a/anthrax/random_acts_of_senseless_violence_tab_ver_2.html ]
 Drums and bass enter.
 Guitar 1
           [-PM-]         [-PM-]         [-PM-]       [--PM--]
E[--------------------------------------------------------------|
B[--------------------------------------------------------------|
G[--------------------------------------------------------------|
D[--------------------------------------------------------------|
A[-0-3p0-3p0-xxxx-0-3p0-3p0-xxxx-0-3p0-3p0-xxxx-0-3p0-3-22-x-22-|
E[-0-3p0-3p0-xxxx-0-3p0-3p0-xxxx-0-3p0-3p0-xxxx-0-3p0-3-22-x-22-|
 [
 [Guitar 2
 [Siren guitar
E[--------------------------------------------------------------|
B[--------------------------------------------------------------|
G[--------------------------------------------------------------|
D[-r8-----r7-----r6-----r5-------r4-------r3--------0-----------|
A[--------------------------------------------------------------|
E[--------------------------------------------------------------|

 Verse Riff

           [-PM-]         [-PM-]         [-PM-]         [-PM-]
E-------------------------------------------------------------|
B-------------------------------------------------------------|
G-------------------------------------------------------------|
D-------------------------------------------------------------|
A-0-3p0-3p0-xxxx-0-3p0-3p0-xxxx-0-3p0-3p0-xxxx-0-3p0-3p0-xxxx-|
E-0-3p0-3p0-xxxx-0-3p0-3p0-xxxx-0-3p0-3p0-xxxx-0-3p0-3p0-xxxx-| Rpt

 Bridge

E---------------------|
B---------------------|
G---------------------|
D---------------------|
A-0-3p0-3p0-3-5br-----|
E-0-3p0-3p0-3-5br-3p--| Rpt 4 X

E---------------------|
B---------------------|
G---------------------|
D-0---0---0-----------|
A-0-3p0-3p0-3-5br-----|
E-0-3p0-3p0-3-5br-3p--| Rpt 3 X

              [--PM--]
E---------------------|
B---------------------|
G---------------------|
D-0---0---0-----------|
A-0-3p0-3p0-3-22-x-22-|
E-0-3p0-3p0-3-22-x-22-|

 Chorus

E-------------------------------------|
B-------------------------------------|
G-------------------------------------|
D-0-----3----/8-8-8-8-8-8-8-8-8-8-8-8-|
A-0-----3----/8-8-8-8-8-8-8-8-8-8-8-8-|
E-0-----3----/8-8-8-8-8-8-8-8-8-8-8-8-|

E-------------------------------------|
B-------------------------------------|
G-------------------------------------|
D-0-----3----/5-5-5-5-5-5-5-5-5-5-5-5-|
A-0-----3----/5-5-5-5-5-5-5-5-5-5-5-5-|
E-0-----3----/5-5-5-5-5-5-5-5-5-5-5-5-|

E-------------------------------------|
B-------------------------------------|
G-------------------------------------|
D-0-----3----/8-8-8-8-8-8-8-8-8-8-8-8-|
A-0-----3----/8-8-8-8-8-8-8-8-8-8-8-8-|
E-0-----3----/8-8-8-8-8-8-8-8-8-8-8-8-|
                                       ~~~~~~~~~~~
E----------------------------------------------------------|
B----------------------------------------------------------|
G----------------------------------------------------------|
D-0-----3----/5-5-5-5-5-5-5-5-5-5-5-5----------------------|
A-0-----3----/5-5-5-5-5-5-5-5-5-5-5-5----------------------|
E-0-----3----/5-5-5-5-5-5-5-5-5-5-5-5-6b-------------------|

 Rpt Main Riff
 Rpt Verse, Bridge and Chorus.

  ~~~~~~~~~~~~~~~~~~~~~ To Feedback
E-------------------------------------------------------------------|
B-------------------------------------------------------------------|
G-------------------------------------------------------------------|
D-------------------------------------------------------------------|
A-------------------------------------------------------------------|
E-6b-------------------(6)------------------------------------------|

E---------------|
B---------------|
G---------------|
D-----------x-x-|
A-0-3-5-3-4-x-x-|
E-0-3-5-3-4-x-x-| Rpt 8 X

E---------------|
B---------------|
G---------------|
D---------------|
A-0-3-5-3-4-5p0-|
E-0-3-5-3-4-5p0-| Rpt 3 X

E----|
B----|
G----|
D----|
A-0--|
E-0--|

 Backing for guitar solo

E----------------------------------|
B----------------------------------|
G----------------------------------|
D----------------------------------|
A-0-3p0-3p0-3p0-5\3-5\3-5\3-5\3-5p-|
E-0-3p0-3p0-3p0-5\3-5\3-5\3-5\3-5p-| Rpt 3 X

                        [-----------PM-------------]
E---------------------------------------------------|
B---------------------------------------------------|
G---------------------------------------------------|
D---------------------------------------------------|
A-0-3p0-3p0-3p0-5\3-5\3-5-2-2-5-2-2-5-2-2-5-2-2-5-2-|
E-0-3p0-3p0-3p0-5\3-5\3-5-2-2-5-2-2-5-2-2-5-2-2-5-2-|

 Rpt Chorus 3 X

E-----------------|
B-----------------|
G-----------------|
D-0-----0-----x-x-|
A-0-3-5-0-3-5-x-x-|
E-0-3-5-0-3-5-x-x-| Rpt 8 X




END
Comments