Anthrax - Poison My Eyes Chords & Tabs

 

Poison My Eyes Chords & Tabs

Anthrax Chords & Tabs

Version: 1 Type: Tab 0 ratings
1 star 2 stars 3 stars 4 stars 5 stars
comments

Poison My Eyes Tab

   
**************************
Poison My Eyes - Anthrax

from the album "Last Action Hero Soundtrack"

tabbed by:  Colby Dove (Moshushu@aol.com)
**************************

tuning:  Eb  (Eb, Ab, Db, Gb, Bb, Eb)

Riff 1 (intro) part 1
|------------------------------------------------|
|------------------------------------------------|
|--4---4---7---6---4---4---7--7------------------|
|--4---4---7---6---4---4---7--7--6--6---5---7----|
|--2---2---5---4---2---2---5--5--6--6---5---7----|
|--------------------------------4--4---3---5----|

Riff 2 (intro) part 2
|------------------------------------------------------------|
|------------------------------------------------------------|
|--4--4--7--7--6--6--9--9----4--4--7--7--6--6----------------|
|--4--4--7--7--6--6--9--9----4--4--7--7--6--6---5--7--4------|
|--2--2--5--5--4--4--7--7----2--2--5--5--4--4---5--7--4------|
|-----------------------------------------------3--5--2------|

Riff 3A (intro) part 3
|-------------------------------------------|
|-------------------------------------------|
|-------------------------------------------|
|-------------------------------------------|
|--2-2-0----2-2-0----2-2-0----2-2-0---------|
|---------2--------2--------2--------2------|

Riff 3B (intro) part 3 guitar 2
|-----------------------------------------------------|
|-----------------------------------------------------|
|--4-----7-----6----9----4----7----6------------------|
|--4-----7-----6----9----4----7----6---5---7----2-----|
|--2-----5-----4----7----2----5----4---5---7----2-----|
|--------------------------------------3---5----0-----|

Riff 4 (intro) part 4
|-----------------|
|-----------------|
|-----------------|
|-----------------|
|-----------------|
|---2-/-7--7------|

Riff 5 (intro) part 5
|--------------------------------------------------------------------|
|--------------------------------------------------------------------|
|--------------------------------------------------------------------|
|--------------------------------------------------------------------|
|--------------------------------------------------5---5---5---5---5-|
|---2-/-7--8--2-/-7--8--2-/-7--8---2-/-7--8-p7---7---7---7---7---7---|

Riff 6 (verse)
|--------------------------------------------------------------|
|--------------------------------------------------------------|
|--------------------------------------------------------------|
|-------------------------------------------------------2------|
|--9--x-x-x-x-x-x-x-x-x---------9--x-x-x-x-x-x-x-x-x-x--2------|
|--7--x-x-x-x-x-x-x-x-x--3-/-8--7--x-x-x-x-x-x-x-x-x-x--0------|

Riff 7 (end 2 measures of verse)
|---------------------|
|---------------------|
|---------------------|
|---9--------6--------|
|---9--------6--------|
|---7--------4--------|

Riff 8 (bridge)
|----------------------------------------------------------|
|----------------------------------------------------------|
|----------------------------------------------------------|
|---------------0-h2------------------------------4-h6-----|
|---------0-h2------------------------------4-h6-----------|
|--0-0-0-----------------------------4-4-4-----------------|
play four times______|   play four times________________|

Riff 9 (pre-chorus) part 1
|-------------------------------------------------|
|-------------------------------------------------|
|-------------------------------------------------|
|-------------------------------------------------|
|-------2-----4---2-h4---------4-----2---2-h4-----|
|--0-0-----0-------------0--0-----0---------------|
play two times______________________________|

|---------------------------------|
|---------------------------------|
|---------------------------------|
|------------------4-h6-----------|
|------------4-h6-----------------|
|--4--4--4------------------------|
play four times_______________|

Fill 1 (play 2nd time through pre-chorus)
|----------------------------------------------------------------------------|
|----------------------------------------------------------------------------|
|----------------------------------------------------------------------------|
|---------------4-h6--------4-h6--------4-h6--------4-h6---------4-h6--------|
|---------4-h6--------4-h6--------4-h6--------4-h6---------4-h6--------------|
|--4-4-4-----------------------------------------------------------------0---|

Riff 10 (pre-chorus) part 2
|-------------------------------------------------------------------------|
|-------------------------------------------------------------------------|
|-------------------------------------------------------------------------|
|-------------------------------------------------------------------------|
|--6-6-6-6-6-6-6-6-6-6-6-6-6-6-6-6-----2---2---2---2---2---2---2----------|
|--4-4-4-4-4-4-4-4-4-4-4-4-4-4-4-4---4---4---4---4---4---4---4---4--0-----|
p.m.____________________________|  let ring______________________|

Riff 11 (chorus)
|-------------------------------------------------------|
|-------------------------------------------------------|
|-------------------------------------------------------|
|-------------------------------------------------------|
|--2-----2-----2-----2-----2-----2-----2------2---------|
|-----0-----0-----0-----0-----0-----0------0-----0--0---|

|-----------------------------------------------------------------------|
|-----------------------------------------------------------------------|
|-----------------------------------------------------------------------|
|-----------------------------------------------------------------------|
|--6-6-6-6-6-6-6-6--6-6-6-6-6-6-6-6----2---2---2---2---2---2---2--------|
|--4-4-4-4-4-4-4-4--4-4-4-4-4-4-4-4--4---4---4---4---4---4---4---4--0---|
p.m._____________________________| let ring______________________|

|-----------------------------------------------------|
|-----------------------------------------------------|
|-----------------------------------------------------|
|-----------------------------------------------------|
|--2-----2-----2-----2-----2-----2-----2-----2--------|
|-----0-----0-----0-----0-----0-----0-----0-----0--0--|
 
|------------------------------------------------------------------|
|------------------------------------------------------------------|
|------------------------------------------------------------------|
|------------------------------------------------------------------|
|--6-6-6-6-6-6-6-6-6-6-6-6-6-\-5---6-6-6-6-6-6-6-6-6-6-6-6-6-------|
|--4-4-4-4-4-4-4-4-4-4-4-4-4-\-3---4-4-4-4-4-4-4-4-4-4-4-4-4-------|
p.m.________________________________________________________|

|---------------------------------------------------------|
|---------------------------------------------------------|
|---------------------------------------------------------|
|--2-2-2-2-2-2-2-2-2-2-2-2-2-2-2-2-2-2-2-2-2-2-2-2-2-2----|
|--2-2-2-2-2-2-2-2-2-2-2-2-2-2-2-2-2-2-2-2-2-2-2-2-2-2----|
|--0-0-0-0-0-0-0-0-0-0-0-0-0-0-0-0-0-0-0-0-0-0-0-0-0-0----|
p.m._______________________________________________|

Riff 12 (behind solo)
|-------------------------------------|
|-------------------------------------|
|--4----------------7----7--7--7------|
|--4-------4--4--5--7----7--7--7------|
|--2----0--2--2--3--5----5--5--5------|
|-------------------------------------|
[ Tab from: http://www.guitartabs.cc/tabs/a/anthrax/poison_my_eyes_tab.html ]
|--------------------------------------------|
|--------------------------------------------|
|--7-\-6---7-\-6-----------6-\-5---6-\-5-----|
|--7-\-6---7-\-6-----------6-\-5---6-\-5-----|
|--5-\-4---5-\-4-----------4-\-3---4-\-3-----|
|--------------------------------------------|
play twice________|       play twice________|

Riff 13
|------------------------------------------|
|------------------------------------------|
|------------------------------------------|
|--2-h5--2-h5--2-h5--2-h5---6-\-5----------|
|--2-h5--2-h5--2-h5--2-h5---6-\-5----------|
|--0-h3--0-h3--0-h3--0-h3---4-\-3----------|

Riff 14
|--------------------------------------------------------|
|--------------------------------------------------------|
|--------------------------------------------------------|
|--2----2-2-2--2----2-2-2---5-----4-----2-2-2------------|
|--2----2-2-2--2----2-2-2---5-----4-----2-2-2------------|
|--0----0-0-0--0----0-0-0---3-----2-----0-0-0------------|

|-------0-0-0--0--------------------------------------------|
|-------0-0-0--0--------------------------------------------|
|-------4-4-4--4--------------------------------------------|
|--2----2-2-2--2---2-2-2---5--5--4--4---7---7-7-7-----------|
|--2----2-2-2--2---2-2-2---5--5--4--4---7---7-7-7-----------|
|--0----0-0-0--0---0-0-0---3--3--2--2---5---5-5-5-----------|

Riff 15A
|-------------------------------------------|
|-------------------------------------------|
|-------------------------------------------|
|--2-2-0----2-2-0----2-2-0-----2-2-0--------|
|---------2--------2---------2---------2----|
|-------------------------------------------|

Riff 15B (played by guitar 2 behind riff 15A)
|-------------------------------------------------------|
|-------------------------------------------------------|
|-------------------------------------------------------|
|--2----2-5----5-4----4-7----7-2----2-5----5-4----4--5--|
|--2----2-5----5-4----4-7----7-2----2-5----5-4----4--5--|
|--0----0-3----3-2----2-5----5-0----0-3----3-2----2--3--|

Solo (with Wah-wah pedal)
|-------------------------------------------------------|
|--10-h12~~~~~-12--12--12--12--15~~~--14-\-10~~~~~~-----|
|-------------------------------------------------------|
|-------------------------------------------------------|
|-------------------------------------------------------|
|-------------------------------------------------------|

|------------------------------------------------------------------------------|
|-(a.h.)12~~-(a.h.)10-b(12)----------------------------------------10-\-12~~-\-|
|---------------------------9b(11)--7-7-----------------7----------------------|
|----------------------------------------9~~--7-h9-p7-h9---9-p7----------------|
|----------------------------------------------------------------9-------------|
|------------------------------------------------------------------------------|

|----------------------------------------------------------|
|----------------------------------------------------------|
|--------------------------------------------------4-b(6)--|
|--2-h4-p2-h4--2--------4--2-h4-p2-h4--2-------------------|
|------------------5--2---------------------5--2-----------|
|----------------------------------------------------------|
 
|------------------------------------------------------------------|
|------------------------------------------------------------------|
|---------------------------4--4-----------------------------------|
|--2-h4-p2-h4--2--4--6--7--------4--7-b(8)--4-----(a.h.)4~~~~~~----|
|-----------------------------------------------7------------------|
|------------------------------------------------------------------|


|-------------------------------------------------------------------------|
|-------------------------------------------------------------------------|
|--9-b(11)-9--6-----------------------------------------------------------|
|----------------9--7--9-b(10)--7----9--(a.h.)7--7-b(9)-------------------|
|----------------------------------9-------------------9--9--7--5---------|
|-------------------------------------------------------------------7--5--|

|------------------------------------------------------------------------------|
|----------14--17--17-/-19~~~-14--17-17-/-19-14~~-14--17-17-/-19~~-19-14-17----|
|------------------------------------------------------------------------------|
|------------------------------------------------------------------------------|
|------------------------------------------------------------------------------|
|--7--7-/----------------------------------------------------------------------|
 
|------------------------14--17-p14-----14----------------------------------|
|-/-19----------17-b(19)-------------17-----17-p14--17-p14-----14-----------|
|-------16-\-7-----------------------------------------------16-----16-p14--|
|---------------------------------------------------------------------------|
|---------------------------------------------------------------------------|
|---------------------------------------------------------------------------|
 
|-----------------------------------------------|
|--17-p14-----14--------------------------------|
|----------16-----16--14--16--14--14--14--------|
|-------------------------------------------16--|
|-----------------------------------------------|
|-----------------------------------------------|
 
|-----------------------------------------------------------------------------|
|--12-/-16--------------------------------------------------------------------|
|------------(a.h)14-b(16)~~--------------------------------------------------|
|----------------------------16--14--16-/-17--14~~~--12-b(13)-----------------|
|---------------------------------------------------------------14--12--14-\--|
|-----------------------------------------------------------------------------|

|-------------------------------------------------------------------------|
|------------------7-h12-p7-p0--7-h12-p7-p0--7-h12-p7-p0--7-h12-p7-p0-----|
|-------------------------------------------------------------------------|
|-------9~~~~~~-----------------------------------------------------------|
|--/-9--------------------------------------------------------------------|
|-------------------------------------------------------------------------|
 
|-------------------------------------------|
|--7-h12-p7-p0--7-h12-p7-p0--7-h12--/-12----|
|-------------------------------------------|
|-------------------------------------------|
|-------------------------------------------|
|-------------------------------------------|

|--------------------------------------------------|
|--19-p14--19--19-19-p14-h19--19-p14-h19-p14-------|
|--------------------------------------------------|
|--------------------------------------------------|
|--------------------------------------------------|
|--------------------------------------------------|

|-------------------------------------------------------------|
|--19-14-14-14--19-p14--14-h19--19-p14--15-h17-h19-p14--------|
|-------------------------------------------------------------|
|-------------------------------------------------------------|
|-------------------------------------------------------------|
|-------------------------------------------------------------|
 
|--------------------------------------------------------14--------14-\----|
|------19-p14-----14-p19-h14-----19-----------15--17---17-b(19)------------|
|--15----------15-------------15------14--14-------------------------------|
|--------------------------------------------------------------------------|
|--------------------------------------------------------------------------|
|--------------------------------------------------------------------------|

KEY                     
h = hammer-on to new note
p=pull-off to new note
/ = slide up to new note
\ = slide down to new note
b(?) = bend to pitch of new note
p.m. = palm mute
(a.h.) = artificial harmonic
x = muted or dead note
Comments