Anthrax - Pipeline Chords & Tabs

 

Pipeline Chords & Tabs

Anthrax Chords & Tabs

Version: 1 Type: Tab 0 ratings
1 star 2 stars 3 stars 4 stars 5 stars
comments

Pipeline Tab

   
Song: Pipeline
Artist : Anthrax
Transcribed by : Jordan G
EbGdAE

RIFF A:
e---------------------------------------
B---------------------------------------
G---------------------------------------
D---------------------------------------
A-------2-------------------------------
E--12\-------------------------------
  PALM MUTE with Tremelo picking

RIFF B:
------------------------------------------
------------------------------------------
------------------------------------------
------------------------------------------
------------------------------------------
--12--0-7-3-7-0-7-3-7-0-7-3-7-0-7-3-7----
       [p.m...........................]
Play that four times


Riff C:
  Guitar 1
|----------------------------------------------------
|----------------------------------------------------
|----------------------------------------------------
|----0-2-0-2-4-2-0-2-4-2-4-2-0-2-0-------------------
|--2-------------------------------2-----------------
|----------------------------------------------------
|                                       
| 2nd guitar, or you when you get better/
|----------------------------------------------------
|----------------------------------------------------
|---------------------------------------0-2-4-2-0-2--
|-------------------------------------4--------------
|----------------------------------------------------
|----------------------------------------------------

  Guitar 1
|----------------------------------------------------
|----------------------------------------------------
|----0-2-0-2-4-2-0-2-4-2-4-2-0-2-0-------------------
|--2-------------------------------2-----------------
|----------------------------------------------------
|----------------------------------------------------
[ Tab from: http://www.guitartabs.cc/tabs/a/anthrax/pipeline_tab.html ]
| 2nd guitar, or you when you get better/
|-------------------------------------------0--------
|---------------------------------------0-1---3-1-0--
|-------------------------------------2--------------
|----------------------------------------------------
|----------------------------------------------------
|----------------------------------------------------

Riff D:
-------------------------------|----------------------
-------------------------------|----------------------
-------------------------------|----------------------
--4-4--5-5--4-4--5-5--4-4--4-4-|----------------------
--2-2--3-3--2-2--3-3--2-2--2-2-|-7--5-7--5---------
-------------------------------|-5--3-5--3---------
                                (you can /
                                 slide these
                               notes if you want) 

Play Riff A
Play Riff B 4 times
Play Riff C
Play Riff D

Riff E                                          1.                   2.
-----------------------------------------------|--------------------|-----
-----------------------------------------------|--------------------|-----
-----------------------------------------------|--------------------|-----
-----------2-0------------0--------------------|------------0-------|-----
--3-0-0--3-----3-2------2---3-2-0------0-3-2-0-|--2-------2---3-2---|--4--
-------------------3-3------------1-1----------|-----3-3------------|--2--
  C              G              F                 G                    Ab

On the second time, guitar 2 plays this:
-----------------------------------------------|--------------------|-----
--1--------------0-----------------------------|--------------------|-----
--------------------------------2--------------|--------------------|--1--
-----------------------------------------------|--------------------|-----
-----------------------------------------------|--------------------|-----
-----------------------------------------------|--------------------|-----


Play Riff A
Play Riff B 4 times
Play Riff C
Play Riff D

Then finish with :

-----
-----
-----
--9--
--7--
-----

Questions? Hate mail? Email me at blazer_525@hotmail.com
Comments