Anthrax - Panic Chords & Tabs

 

Panic Chords & Tabs

Anthrax Chords & Tabs

Version: 1 Type: Tab

Panic Tab

   

Intro Drums Rhy. 1                 end 1   3x
|-----||-----------------|---------------||
|-----||-7-7-7-6-6-6-5-5-|-5-4-4-4-3---4-||
|-----||-----------------|---------------||
|-----||-2---------------|---------------||
|-----||-2---------------|---------------||
|-----||-0---------------|---------------||
         *1st Only



2 Gtr                   w/Rhy.1                    
|-----------|-----------|-------------------|-------------|
|-----------|-----------|-------------------|-------------|
|-----------|-----------|-------------------|-------------|
|-5-------5-|------5----|-2-----------------|-----------2-|
|-3---5---3-|--5---3--5-|-2-----------------|-----------2-|
|-----3-----|--3------3-|-0-----------------|-----------0-|


|--------|-------|--------|----|---------|-------------|
|--------|-------|--------|----|---------|-------------|
|--------|-------|--------|----|---------|-------------|
|-2------|-----2-|-2------|----|-5-----5-|-------5-----|
|-2------|-----2-|-2------|----|-3--5--3-|----5--3--5--|
|-0------|-----0-|-0------|----|----3----|----3-----3--|


|--------|--------|--------|-------|-------|----|---------|----------|
|--------|--------|--------|-------|-------|----|---------|----------|
|--------|--------|--------|-------|-------|----|---------|----------|
|--------|--------|--------|-------|-------|----|---------|----------|
|-2-2----|------2-|-2-2----|-----2-|-2-2---|----|-5-----5-|-----5----|
|-2-2----|------2-|-2-2----|-----2-|-2-2---|----|-3--5--3-|--5--3--5-|
|-0-0----|------0-|-0-0----|-----0-|-0-0---|----|----3----|--3-----3-|


  Rhy 2  2 Gtrs   6x                    end 2
||-----------------||----------|-----------||  2x
||-----------------||----------|-----------||
||-----------------||----------|-----------||
||-----------------||-5-----5--|-----5-----||
||-----------------||-3--5--3--|--5--3--5--||
||-0-0-0-0-0-0-0-0-||----3-----|--3-----3--||

w/Rhy 2  Verse

  Move to the Front, Reaching for the Light
  losing' all control, using all your might
  
                   3x
||-----------------||----------|-----------|
||-----------------||----------|-----------|
||-----------------||----------|-----------|
||-----------------||-5-----5--|--5--5--4--|
||-----------------||-3--5--3--|--3--3--2--|
||-0-0-0-0-0-0-0-0-||----3-----|-----------|

  Wheels gonna spin
  Asses are gonna shack
  We are gonna kick, Walls gonna break

|--------|------------|---------|---------------|
|--------|------------|---------|---------------|
|-2------|-5----4---7-|-(7)-----|-5-----4--2----|
|-2------|-5----4---7-|-(7)-----|-5-----4--2----|
|-0------|-0----0---0-|-(0)-----|-0-----0--0----|
|--------|------------|---------|---------------|

       The road is hard      the fight  is tough 

                                                 2x
|----------|------------|---------|---------------|
|----------|------------|---------|---------------|
|-(2)------|-5----4---7-|-(7)-----|-5-----4--2----|
|-(2)------|-5----4---7-|-(7)-----|-5-----4--2----|
|-(0)------|-0----0---0-|-(0)-----|-0-----0--0----|
|----------|------------|---------|---------------|

      Gonna play  it  fast     She likes it rough
            With my  strenght  with all  my soul 

|------|------------|-------------|
|------|------------|-------------|
|-(2)--|-5---4----7-|-(7)-------2-|
|-(2)--|-5---4----7-|-(7)-------2-|
|-(0)--|-0---0----0-|-(0)-------0-|
|------|------------|-------------|
                          
        mak- in'  love  losing  con-     


Rhy 3                                              
end 3  4x
|-----------------|------------|-----------------|----------|
after 2
|-----------------|------------|-----------------|----------|
verse
|-4---------------|-5---4----7-|-----------------|-9--7--5--|
cont.
|-4---4-4-4-4-4-4-|-5---4----7-|-----------------|-9--7--5--|
|-2---2-2-2-2-2-2-|-3---2----5-|-5-5-5-5-5-5-5-5-|-7--5--3--|
|-----------------|------------|-----------------|----------|

  trol------------------------------------------------
        (yes Neil had strong lungs)


Go back to start verse

 Guts Begin to Churn, Mind in a Haze
 Hells gonna burn, Axes in a blaze
 Go in for the kill, Always on the run
 Fighting for your life, The Battle's never won

Chorus
__________________________
|-----|-----|------|------|------|-------|
|-----|-----|------|------|------|-------|
|-4---|-----|------|------|------|-------|
|-4---|-----|-3----|----3-|-4----|-------|
|-2---|-----|-3----|----3-|-4----|-------|
|-----|---0-|-1----|----1-|-2----|----0--|




solo
  G5(chords)              G5
|------|----------------|--------------|-------|
|------|----------------|--------------|-------|
|-12---|-(12)--10---7---|-10-----7---5-|-7-----|
|------|----------------|--------------|-------|
|-10---|-(10)--8----5---|-8------5---3-|-5-----|
|------|----------------|--------------|-------|

 Eb5                   Eb5                  C5
|------|-------------|-----------|--------|------------|
|------|-------------|-----------|--------|------------|
|-8----|-(8)---7---5-|-7---5---8-|-(8)----|-5---7---5--|
|------|-------------|-----------|--------|------------|
|-6----|-(6)---5---3-|-5---3---6-|-(6)----|-3---5---3--|
|------|-------------|-----------|--------|------------|

             C5                      D5       D5
|-----------|--------------|-----------|-----|------|
|-----------|--------------|-----------|-----|------|
|-7/8\7--5--|-7---8--7/8\7-|-10-8----7-|-(7)-|-7----|
|-----------|--------------|-----------|-----|------|
|-5/6\5--3--|-5---6--5/6\5-|-8--6----5-|-(5)-|-5----|
|-----------|--------------|-----------|-----|------|


  Bend slow          
  D5                         G5            G5 G5  
|--------------|-----------|----------------------|
|-13-----(13)~~~~~~~~~~-10-|----------------------|
|--------------|-----------|-12~~~~~~~-----12--10-|
|--------------|-----------|----------------------|
|--------------|-----------|----------------------|
|--------------|-----------|----------------------|


                             B  P       B
  G5      G5G5G5G5                      
|--------------------|-----------------|------------|
|--------------------|-----------------|-13--13~~~--|
|----10--------------|-----10-12----10-|------------|
|-12-----x-12--(12)\-|-----------------|------------|
|--------------------|-----------------|------------|
|--------------------|-----------------|------------|

[ Tab from: http://www.guitartabs.cc/tabs/a/anthrax/panic_tab.html ]
             B                    B                   
      P
 Eb5                                                  
     
|-------15-----------|-15----15--------15-|-15-18-15-17-15----------|
|-/18-------18~~~~~~~|----18-----18~~~~---|----------------18-15-18-|
|--------------------|--------------------|-------------------------|
|--------------------|--------------------|-------------------------|
|--------------------|--------------------|-------------------------|
|--------------------|--------------------|-------------------------|



|-15-----------------------|---------------------|--------|
|----18-15----15-----------|---------------------|--------|
|----------18----17-15-----|-17-15----15---------|--------|
|-----------------------17-|-------17----17-15-17~~~~~~~~~|
|--------------------------|---------------------|--------|
|--------------------------|---------------------|--------|


                                     H   B            
  B    
  D5                                        D5
|--------------------|--------------------|-15-----15--18---18-|
|--------------------|----15----15-15-18--|-----18-------------|
|-------15-17-15-17--|-17----17-----------|--------------------|
|-15-17--------------|--------------------|--------------------|
|--------------------|--------------------|--------------------|
|--------------------|--------------------|--------------------|

               B

|-17-----15---------|
|------------18-----|
|-------------------|
|-------------------|
|-------------------|
|-------------------|

2 Gtr Fun

||-------|--------------|----------|------------|
||-------|--------------|----------|------------|
||-3---5-|-7--5--3----3-|-(3)----5-|-7--5--3----|
||-5---7-|-8--7--5--7-5-|-(5)----7-|-8--7--5--7-|
||-------|----------8---|----------|----------8-|
||-------|--------------|----------|------------|


|--------|---------------|----------|------------|
|--------|---------------|----------|------------|
|--------|-3-------------|----------|-3----------|
|-5----7-|-5--7--5--3--5-|-(5)----7-|-5--7--5--3-|
|-6----8-|----8--6--5--6-|-(6)----8-|----8--6--5-|
|--------|---------------|----------|------------|



|----------------|---------|-----------|----|---|---|---||
|----------------|---------|-----------|----|---|---|---||
|----------------|---------|-----------|----|---|---|---||
|----3-----------|-------3-|-5-3-------|----|---|---|---||
|-6--5---6---5-6-|-(6)---5-|-6-5--6--5-|-5--|---|---|---||
|-8------8---6-8-|-(8)-----|------8----|----|---|---|---||
                                     *same note




GTR1
   T P H    T P H     T P H   T P H  4X
||-10-6-8---10-6-8---10-6-8---10-6-8--|
||------------------------------------|
||------------------------------------|
||------------------------------------|
||------------------------------------|
||------------------------------------|
|                                     |
|GTR2                                 |
|  T P P    T P P    T P P    T P  P  4X
||------------------------------------|
||-11-10-8--11-10-8--11-10-8--11-10-8-|
||------------------------------------|
||------------------------------------|
||------------------------------------|
||------------------------------------|


  T P H    T P H    T P H    T P H 
|-------------------------------------|4X
|-11-8-10--11-8-10--11-8-10--11-8-10--|
|-------------------------------------|
|-------------------------------------|
|-------------------------------------|
|-------------------------------------|
|                                     |
| T P  P   T P  P   T  P P   T P  P   |4X
|-------------------------------------|
|-------------------------------------|
|-12-10-8--12-10-8--12-10-8--12-10-8--|
|-------------------------------------|
|-------------------------------------|
|-------------------------------------|

  T P H    T P H     T P H   T P H   4X             
AGAIN
|-------------------------------------|------|--|--|--|
|-------------------------------------|------|--|--|--|
|-12-8-10--12-8-10--12-8-10--12-8-10--|-5-7--|--|--|--|
|-------------------------------------|------|--|--|--|
|-------------------------------------|------|--|--|--|
|-------------------------------------|------|--|--|--|
|                                     |
| T P  P   T P  P    T P P   T P  P 4X|
|-------------------------------------|------|--|--|--|
|-------------------------------------|------|--|--|--|
|-------------------------------------|------|--|--|--|
|-------------------------------------|------|--|--|--|
|-13-12-10-13-12-10-13-12-10-13-12-10-|-12---|--|--|--|
|-------------------------------------|------|--|--|--|



W/Rhy 3
   Bend (9)  A.H.....
|---------|------------|-------------------|-------|
|-10------|------------|-------------------|-------|
|--9------|--7------7~~~-------------------|-------|
|---------|------9-----|----9--7-----------|-------|
|---------|------------|----------9-8--7\5-|-7~~~~-|
|---------|------------|-------------------|-------|


|-----------------------|--------------|---------------|
|-----------------------|--------------|----7---7--7-9-|
|-----------------------|--------------|------9---9----|
|-----------------------|-----7---7--9~~~~~------------|
|------------5-5-5-5--7-|-7/9---9------|---------------|
|-5--7--7--5------------|--------------|---------------|

  TREM Br  5 st.     B              B         H     B
|---------------|------------|------------|-12-15-14----14-|
|-9-------------|-/15~~~~~~~~|-15--15~~~~~|----------------|
|---------------|------------|------------|----------------|
|---------------|------------|------------|----------------|
|---------------|------------|------------|----------------|
|---------------|------------|------------|----------------|


             B                     P      P           
   
|-14---12----------|-7-7-10-9----10-7---10-7-|
|----------15~~~~~~|-------------------------|
|------------------|-------------------------|
|------------------|-------------------------|
|------------------|-------------------------|
|------------------|-------------------------|
                 
                                             DIVE 5
|-10-9--7----------------|-----------------|------|
|---------10--8----10--8-|-10-8------------|------|
|---------------9--------|-----9-8-7---7-X-|------|
|------------------------|-----------9-----|-9----|
|------------------------|-----------------|------|
|------------------------|-----------------|------|


  Rhy 2  2 Gtrs   6x                    end 2
||-----------------||----------|-----------||  
||-----------------||----------|-----------||
||-----------------||----------|-----------||
||-----------------||-5-----5--|-----5-----||
||-----------------||-3--5--3--|--5--3--5--||
||-0-0-0-0-0-0-0-0-||----3-----|--3-----3--||

w/Rhy 2  Verse

  Move to the Front, Reaching for the Light
  losing' all control, using all your might

  Wheels gonna spin,Asses are gonna shack
  We are gonna kick, Walls gonna break

  Back are turned, rock n roll
  to the wall      I'm losing control 


2 Gtr                                    
|-----------|-----------|----------|------------|
|-----------|-----------|----------|------------|
|-----------|-----------|----------|------------|
|-5-------5-|------5----|-5------5-|------5-----|
|-3---5---3-|--5---3--5-|-3---5--3-|--5---3--5--|
|-----3-----|--3------3-|-----3----|--3------3--|



|---------|end
|---------|
|---------|
|-2-2-2-2-|
|-2-2-2-2-|
|-0-0-0-0-|