Anthrax - Only Chords & Tabs

 

Only Chords & Tabs

Anthrax Chords & Tabs

Version: 2 Type: Bass Tab 0 ratings
1 star 2 stars 3 stars 4 stars 5 stars
comments

Only Bass Tab

Artist: Anthrax
Song: Only
Album: Sound of White Noise
Bassist: Frank Bello
Tabbed by: LedZeplica

h = hammer on

Here's beginning riff. Play each note a bunch of times, I just wrote each 
note once so the tab isnt confusing and because i'm lazy..
G|----------------------------------
D|----------------------------------
A|-2-----------------2--------------
E|-----------------------3---2---3--

G|----------------------------------
D|----------------------------------
A|-2-----------------2--------------
E|-----3---2---0---------3---2---0--


Then this is the verse riff..
  "Everything is perfect.."
G|-----------------------
D|-----------------------
A|-2---0-2---0-2---0-2---
E|-----------------------

G|----------------------------
D|---0-0-0-0-0-0--------------
A|-0--------------------------
E|---------------4------3-----
Repeat this whoile riff once.


Then this is the pre-chorus..
  "Revolve around yourself.."
G|--------------------------------
D|--------------------------------
A|-2-2-2-2-2-2-2-2-2-2-2-2-2-2-2--
E|--------------------------------
[ Tab from: http://www.guitartabs.cc/tabs/a/anthrax/only_btab_ver_2.html ]
G|-----------------------------------
D|-----------------------------------
A|-0---------------------------------
E|--4-4-4-4-4-4-4-4-3-3-3-3-3-3-3-3--
Play that whole thing twice, then play this for the end of the pre-chorus..
                  "You would see if.."
G|----------------------------------
D|----------------------------------
A|----------------------------------
E|-0-0-0-0-0-0-0-0-0-0-0-0-0-0-0-0--


And here's the chorus, its alot like the intro except with fills..
G|-------------------0------------0------
D|---------------0h2---2-0h2--0h2---2-0--
A|-2-------------------------------------
E|-----3---2---3-------------------------

G|--------------------
D|-------------2------
A|-2---5---4----------
E|--------------------


Then the second verse is played the same as the first.
Then play the pre-chorus again.
Then the chorus.

Then play this a bunch of times during the first part of the guitar solo..
G|------
D|------
A|-2-2--
E|------

Then this a bunch for the second part of the guitar solo..
G|------------
D|------------
A|-2-2-0------
E|--------0---

Then this during the third part of it..
G|------------------
D|------------------
A|-2-2---2-2---2-2--
E|------------------

G|--------------------------
D|-------------0-0-0-0-0-0--
A|-2-2---2-2----------------
E|--------------------------

Then this for the fourth part..
G|-----------------------0------------0------
D|----------------2--0h2---2-0h2--0h2---2-0--
A|-2----5----4-------------------------------
E|-------------------------------------------

G|----------------------
D|----------------2-----
A|-2----5----4----------
E|----------------------


Then play the chorus three times.

Then play the first and second parts of the guitar solo riff again.

Then these are the last three notes..
G|-4------
D|---4----
A|-----2--
E|--------

And thats the end.. later.

Ledzeplica@aol.com
Comments