Anthrax - Intro To Reality Chords & Tabs

 

Intro To Reality Chords & Tabs

Anthrax Chords & Tabs

Version: 2 Type: Tab

Intro To Reality Tab

We did as we were told, he just heard you offer the
apology for
all monsters of our times is that correct?ha.ha.ha.ha


           P     P           N.H         P     P      
G||---------------------------0-|-------------------------||
D||-----------------------------|-------------------------||
A||-------5-2---5-2----5--4-----|-------5-2---5-2---5-4-2-||
E||-3---3-----3-----3-----------|-3---3-----3-----3-------||



          P     P            N.H.     P      P  
G|---------------------------0-|--------------------------|
D|-------5-2---5-2----5--4-----|-----5-2----5-2----5-4-2--|
A|-3---3-----3-----3-----------|-3-3-----3------3---------|
E|-----------------------------|--------------------------|


          P     P           N.H         P     P      
G|---------------------------0-|-------------------------|
D|-----------------------------|-------------------------|
A|-------5-2---5-2----5--4-----|-------5-2---5-2---5-4-2-|
E|-3---3-----3-----3-----------|-3---3-----3-----3-------|

         P     P                       P     P 
G|----------------------------|--------------------------|
D|----------------------------|--------------------------|
A|-------8-5---8-5---8--6--8\-|-------3-0---3-0--3--0----|
E|-6---6-----6-----6----------|-1---1-----1------------0-|


          P     P           N.H         P     P      
G|---------------------------0-|-------------------------|
D|-----------------------------|-------------------------|
A|-------5-2---5-2----5--4-----|-------5-2---5-2---5-4-2-|
E|-3---3-----3-----3-----------|-3---3-----3-----3-------|



REPEAT FROM BEGINNING W/REST

PLAY FIRST TIME AND HOLD
         4X      2X     2X  2 GTRS
E||-------||------||-----||--------|--------|--------|--------|
B||-------||------||-----||--------|--------|--------|--------|
G||-------||-5----||-----||-7-----7|--------|-4------|(4)-----|
D||-5-----||------||-5---||-8-----8|-7------|-5------|(5)-----|
A||-------||------||-----||--------|-8------|--------|--------|
E||-------||------||-----||--------|--------|--------|--------|


E|------2-3-|------2-3-|-----2-3-|-----2-3-|-----7-8-|-----7-8-|
B|-0----2-3-|------2-3-|-----2-3-|-----2-3-|-----7-8-|-----7-8-|
G|-0--------|-4--------|-4-------|-4-------|-5-------|-5-------|
D|----------|-5--------|-5-------|-5-------|-5-------|-5-------|
A|----------|----------|---------|---------|---------|---------|
E|----------|----------|---------|---------|---------|---------|


E|------2-3-|------2-3-|-----6-5-|-----5---|-----2-3-|-----2-3-|
B|------2-3-|------2-3-|-3---6-5-|-----5---|-----2-3-|-----2-3-|
G|-4--------|-4--------|-3-------|-2-----2-|-4-------|-4-------|
D|-5--------|-5--------|---------|-3-----3-|-5-------|-5-------|
A|----------|----------|---------|---------|---------|---------|
E|----------|----------|---------|---------|---------|---------|

 
OPEN RHYTHEM PLAYED ALSO
3 GTRS                                                
                  2X
|-------------------------2---3-------|------------------------2---3--------|
|-------------------------2---3-------|------------------------2---3--------|
|-4---------------4-------------------|-4---------------4-------------------|
|-5---------------5-------------------|-5---------------5-------------------|
|-------------------------------------|-------------------------------------|
|-3-3-3-3-3-3-3-3-3-3-3-3-3-3-3-3-3-3-|-3-3-3-3-3-3-3-3-3-3-3-3-3-3-3-3-3-3-|


|-----------------------7-----8-------|-------------------------7---8-------|
|-5---------------------7-----8-------|-5-----------------------7---8-------|
|-5-----------------------------------|-5-----------------------------------|
|-------------------------------------|-------------------------------------|
|-------------------------------------|-------------------------------------|
|-8-8-8-8-8-8-8-8-8-8-8-8-8-8-8-8-8-8-|-8-8-8-8-8-8-8-8-8-8-8-8-8-8-8-8-8-8-|

[ Tab from: http://www.guitartabs.cc/tabs/a/anthrax/intro_to_reality_tab_ver_2.html ]
|-----------------------2-----3-------|---------------------2-----3---------|
|-----------------------2-----3-------|---------------------2-----3---------|
|-4---------------4-------------------|-4-------------4---------------------|
|-5---------------5-------------------|-5-------------5---------------------|
|-------------------------------------|-------------------------------------|
|-3-3-3-3-3-3-3-3-3-3-3-3-3-3-3-3-3-3-|-3-3-3-3-3-3-3-3-3-3-3-3-3-3-3-3-3-3-|

|-------------------------6-----5-----|---------------------5---------------|
|-3---------------3-------6-----5-----|---------------------5-----2---------|
|-3---------------3-------------------|-2--------------2----------3---------|
|-------------------------------------|-3--------------3--------------------|
|-------------------------8-----7-----|-------------------------------------|
|-6-6-6-6-6-6-6-6-6-6-6-6-------------|-1-1-1-1-1-1-1-1-1-1-1-1-1-1-1-1-1-1-|

|-------------------------------------|-------------------------------------|
|-------------------------------------|-------------------------------------|
|-4-4-4-4-4-4-4-4-4-3-3-3-3-3-3-3-3-3-|-2-2-2-2-2-2-2-2-2-1-1-1-1-1-1-1-1-1-|
|-5-5-5-5-5-5-5-5-5-4-4-4-4-4-4-4-4-4-|-3-3-3-3-3-3-3-3-3-2-2-2-2-2-2-2-2-2-|
|-------------------------------------|-------------------------------------|
|-3-3-3-3-3-3-3-3-3-2-2-2-2-2-2-2-2-2-|-1-1-1-1-1-1-1-1-1-0-0-0-0-0-0-0-0-0-|

    P     P     P     P     P     P   			2X
||-------------------------------------|--------7--------|
||-------------------------------------|--------8--------|
||-4-0-0-5-0-0-6-0-0-7-0-0-6-0-0-5-0-0-|--4-----------0--|
||-------------------------------------|-----------------|
||-5\----------------------------------|-----------------|
||-3\----------------------------------|-----------------|


   P     P     P     P     P     P   			
|-------------------------------------|--------7--------|
|-------------------------------------|--------8--------|
|-4-0-0-5-0-0-6-0-0-7-0-0-6-0-0-5-0-0-|--4-----------0--|
|-------------------------------------|-----------------|
|-5-----------------5-----------------|--5-5-5--5-5-5---|
|-3-----------------3-----------------|--3-3-3--3-3-3---|


   P     P     P     P     P     P   			3X
|---------------------------------------|--------7--------|
|---------------------------------------|--------8--------|
|-4-0-0-5-0-0-6-0-0-7-0-0-6-0-0-5-0-0---|--4-----------0--|
|---------------------------------------|-----------------|
|-5-5-5-5-5-5-5-5-5-5-5-5-5-5-5-5-5-5-5-|--5-5-5--5-5-5---|
|-3-3-3-3-3-3-3-3-3-3-3-3-3-3-3-3-3-3-3-|--3-3-3--3-3-3---|


               P     P                  P   2X
|-------------------------|---------------------|
|-------5-----6-5---8-5---|-------5----6-5----8-|
|-5-5-5-----5-----5-----5-|-5-5-5----5------5---|
|-------------------------|---------------------|
|-3-3-3-3-3-3-3-3-3-3-3-3-|-3-3-3-3-3-3-3-3-3-3-|
|-------------------------|---------------------|

   P   P   P   P   P   P   P   P   P            2X    
   
|-------------------------------------|-----7------|
|-------------------------------------|-----8------|
|-4-0-5-0-6-0-7-0-6-0-5-0-4-0-5-0-6-0-|-7------0---|
|-------------------------------------|------------|
|-------------------------------------|------------|
|-3---3---3---3---3---3---3---3---3---|-3---3------|


               P     P                   P
|-------------------------|-------------------------|
|-------------4-3---6-3---|-------------4-3---6-----|
|-3-3-3-3---3-----3-----3-|-3-3-3-3---3-----3-------|
|-------------------------|-------------------------|
|-1-1-1-1-1-1-1-1-1-1-1-1-|-1-1-1-1-1-1-1-1-1-1-1-1-|
|---------------------------------------------------|

               P     P                   P        
|-------------------------|-------------------------|
|-------------------------|-------------------------|
|-------2-----3-2---5-2---|-------2-----3-2---5-----|
|-3-3-3-----3-----3-----3-|-3-3-3-----3-----3-------|
|-------------------------|-------------------------|
|-1-1-1-1-1-1-1-1-1-1-1-1-|-1-1-1-1-1-1-1-1-1-1-1-1-|


__________________________________________________