Anthrax - In My World Chords & Tabs

 

In My World Chords & Tabs

Anthrax Chords & Tabs

Version: 1 Type: Tab 0 ratings
1 star 2 stars 3 stars 4 stars 5 stars
comments

In My World Tab

   
Anthrax:  In My World

transcribed by: Russ Elton (anthraxtabs@yahoo.com)

Date last modified: 03/11/02

FIND THE MOST UPDATED VERSION OF THIS SONG AT:

                          Spreading The Disease:
                        The Home For Anthrax Tabs
                   http://www.powerchords.org/anthraxtabs
  
PLEASE DO NOT COPY THIS TAB TO ANOTHER SITE 
WITHOUT AUTHORS' PERMISSION.  THANK YOU

Tuning: Standard

Riff 1
Guitar 1
e|-----------------------------------|
B|-----------------------------------|
G|-----------------------------------|
D|-----------------------------------|
A|-----4--------3--------2--------1--|
E|-2-2-2----2-2-2----2-2-2----2-2-2--|
   * *      * *      * *      * * 

Guitar 2 (Comes in after the second time)                
e|--------------------------------------------------------|
B|--------------------------------------------------------|
G|--------------------------------------------------------|
D|--------------------------------------------------------|
A|-4--4--4--4-4--3--3--3--3-3--2--2--2--2-2--1--1--1--1-1-|
E|-2--2--2--2-2--2--2--2--2-2--2--2--2--2-2--2--2--2--2-2-|

e|--------------------------------------------------------|
B|--------------------------------------------------------|
G|--------------------------------------------------------|
D|--------------------------------------------------------|
A|-4--4--4--4-4--3--3--3--3-3--2--2--2--2-2--1--1--1--1-1-|
E|-2--2--2--2-2--2--2--2--2-2--2--2--2--2-2--2--2--2--2-2-|


Riff 2                
e|--------------------------------------------------------|
B|--------------------------------------------------------|
G|--------------------------------------------------------|
D|--------------------------------------------------------|
A|-4--4--4--4-4--3--3--3--3-3--2--2--2--2-2--1--1--1--1-1-|
E|-2--2--2--2-2--2--2--2--2-2--2--2--2--2-2--2--2--2--2-2-|

e|--------------------------------------------------------|
B|--------------------------------------------------------|
G|--------------------------------------------------------|
D|--------------------------------------------------------|
A|-4--4--4--4-4--3--3--3--3-3--2--2--2--2-2--1--1--1--1-1-|
E|-2--2--2--2-2--2--2--2--2-2--0--0--0--0-0--2--2--2--2-2-|



Riff 3
e|-------------------------------------------------|
B|-------------------------------------------------|
G|-------------------------------------------------|
D|-9--9--9--9--8--8--8--8-8-7--7--7--7--6--6--6--6-|
A|-7--7--7--7--6--6--6--6-6-5--5--5--5--4--4--4--4-|
E|-------------------------------------------------|


Play Riff 1   "I'll bite the hand..."
Play Riff 3   "I just want my life..."


Riff 4
e|-----------------------------------|
B|-----------------------------------|
G|-----------------------------------|
D|-----------------------------------|
A|-4-----------------------4/5\4-----|
E|-2-2-2-2-2-2-2-2-2-2-2-2-2/3\2-0-0-|
     * * * * * * * * * * *       * *
   "...world..."

Last time
e|---------------------------------------------------|
B|---------------------------------------------------|
G|---------------------------------------------------|
D|---------------------------------------------------|
A|-4-----------------------4/5\4---4/5\4---4/5\4-----|
E|-2-2-2-2-2-2-2-2-2-2-2-2-2/3\2-0-2/3\2-0-2/3\2-0-0-|
     * * * * * * * * * * *       *       *       * *  
   "...hate when others laugh, laugh, laugh..."

[ Tab from: http://www.guitartabs.cc/tabs/a/anthrax/in_my_world_tab.html ]
Riff 5
e|-----------------------------------------------------------------|
B|-----------------------------------------------------------------|
G|-----------------------------------------------------------------|
D|-----------------------------------------------------------------|
A|-4---4-----4---4-3---3-----3---3-2---2-----2---2-1---1-----1-----|
E|-2-2-2-2-2-2-2-2-2-2-2-2-2-2-2-2-2-2-2-2-2-2-2-2-2-2-2-2-2-2-2-2-|
     *   * *   *     *   * *   *     *   * *   *     *   * *   * * 
   "In my world..."
e|-----------------------------------------------------------------|
B|-----------------------------------------------------------------|
G|-----------------------------------------------------------------|
D|-----------------------------------------------------------------|
A|-4---4-----4---4-3---3-----3---3-2---2-----2---2-1---1-----1-----|
E|-2-2-2-2-2-2-2-2-2-2-2-2-2-2-2-2-0-0-0-0-0-0-0-0-2-2-2-2-2-2-2-2-|
     *   * *   *     *   * *   *     *   * *   *     *   * *   * * 
   "No one gets inside..."


Play Riff 1   "An adult at thirteen..."
Play Riff 3   "I just want my life..."
Play Riff 4   "In my world..."
Play Riff 5 and end with:
e|-------------------------------|
B|-------------------------------|
G|-------------------------------|
D|-------------------------------|
A|-4---------------------------4-|
E|-2--------------222222222222-2-|
                  ************


Riff 6 (Solo Rhythm)
                  x2
e|-----------------|---------------------------------|
B|-----------------|---------------------------------|
G|-----------------|---------------------------------|  ---|
D|-----------------|---------------------------------|     |
A|-2---2-----2-----|-5---5---5---5-5-4---4---4---4-2-|     |
E|-0-0-0-0-0-0-0-0-|-3-3-3-3-3-3-3-3-2-2-2-2-2-2-2-0-|     |
     *   * *   * *     *   *   *       *   *   *           |
e|----------------------------------|                      |
B|----------------------------------|                      |
G|----------------------------------|                      |
D|----------------------------------|                      |--- Play 4x
A|-4---4---4---4-4--3---3---3---3-3-|                      |
E|-2-2-2-2-2-2-2-2--2-2-2-2-2-2-2-2-|                      |
     *   *   *        *   *   *                            |
e|---------------------------------|                       |
B|---------------------------------|                       |
G|---------------------------------|                       |
D|---------------------------------|  ---------------------|
A|-7---7---7---7-7-6---6---6---6-6-|
E|-5-5-5-5-5-5-5-5-4-4-4-4-4-4-4-4-|
     *   *   *       *   *   * 
   
                  x2
e|-----------------|---------------------------------|
B|-----------------|---------------------------------|
G|-----------------|---------------------------------|
D|-----------------|---------------------------------|
A|-2---2-----2-----|-5---5---5---5-5-4---4---4---4-2-|
E|-0-0-0-0-0-0-0-0-|-3-3-3-3-3-3-3-3-2-2-2-2-2-2-2-0-|
     *   * *   * *     *   *   *       *   *   * 


Riff 7
e|---------------------------------|
B|---------------------------------|
G|---------------------------------|
D|---------------------------------|
A|-4-----5-4-----5-4---------------|
E|-2-2-2-3-2-2-2-3-2-2-2-2-5p2-0-0-|
     * *     * *     * * *     * * 


Play Riff 4   "I'm not afraid..."


Ending
e|-----------------------------|
B|-----------------------------|
G|-----------------------------|
D|-----------------------------|
A|-4-----------------------5-4-|
E|-2-2-2-2-2-2-2-2-2-2-2-2-3-2-|
     * * * * * * * * * * *
   "I'm not afraid."


notation:
^   =  bend [ ^ = half, ^^ = whole, etc. ]
^r  =  bend and release
x   =  mute with fret-hand
*   =  mute with palm-hand
X\\ =  pick slide
h   =  hammer-on
p   =  pull-off
~   =  vibrato
t   =  tap-on
/   =  slide up
\   =  slide down
h.  =  harmonics
ah  =  artificial harmonic
(9) =  ghost note
tm  =  trem picking
tr  =  trill
Comments