Anthrax - Im The Man Chords & Tabs

 

Im The Man Chords & Tabs

Anthrax Chords & Tabs

Version: 1 Type: Tab 0 ratings
1 star 2 stars 3 stars 4 stars 5 stars
comments

Im The Man Tab

Song: I'm the Man
Artist: Anthrax
As tabbed by Joe Muggah

Tuned down 1/2 step


Intro
eb---------------------------------------------------------
Bb---------------------------------------------------------
Gb------------5---------5--5-5-5--8----------6--6-6-6--9---
Db--6--6-6-6--5---------5--5-5-5--8--6m-5m---6--6-6-6--9---
Ab--6--6-6-6--3--7m-6m--3--3-3-3--6--4m-3m---4--4-4-4--7---
Eb--4--4-4-4-----5m-4m-------------------------------------

(continued)
eb---------------------------------------------------------
Bb---------------------------------------------------------
Gb---------5--5-x--5--5-5-------------5---------5--5-5-5---
Db--8m-6m--5--5-x--5--5-5---6--6-6-6--5---------5--5-5-5---
Ab--6m-4m--3--3-x--3--3-3---6--6-6-6--3--7m-6m--3--3-3-3---
Eb--------------------------4--4-4-4-----5m-4m-------------

(continued)
eb---------------------------------------------------------
Bb---------------------------------------------------------
Gb--8----------6--6-6-6--9---------5-\---------------------
Db--8--6m-5m---6--6-6-6--9--8m-6m--5-\---------------------
Ab--6--4m-3m---4--4-4-4--7--6m-4m--3-\---------------------
Eb---------------------------------------------------------


Verse 1
eb---------------------------------------------------------
Bb---------------------------------------------------------
Gb---------------------------------------------------------
Db--3---------------3-----6-----2-----4-----3--------------
Ab--3------------3m-3--6m-6--2m-2--4m-4--3m-3--------------
Eb--1------------1m-1--4m-4--0m-0--2m-2--1m-1--------------


Chorus
eb---------------------------------------------------------
Bb---------------------------------------------------------
Gb--5-5-5-5---------------------------------------------6--
Db--5-5-5-5--------6-----6-6-6--------4--------7--------6--
Ab--3-3-3-3--7m-6m-6--7m-6-6-6--4m-4m-4--4m-4m-7--4m-4m-4--
Eb-----------5m-4m-4--5m-4-4-4--2m-2m-2--2m-2m-5--2m-2m----
[ Tab from: http://www.guitartabs.cc/tabs/a/anthrax/im_the_man_tab.html ]
(continued)
eb---------------------------------------------------------
Bb---------------------------------------------------------
Gb--5------5-5-5------------5---------5--5-5-5--8----------
Db--5-7-6--5-5-5--6--6-6-6--5---------5--5-5-5--8--6m-5m---
Ab--3-7-6--3-3-3--6--6-6-6--3--7m-6m--3--3-3-3--6--4m-3m---
Eb----5-4---------4--4-4-4-----5m-4m-----------------------

(continued)
eb---------------------------------------------------------
Bb---------------------------------------------------------
Gb--9---------5-\------------------------------------------
Db--9--8m-6m--5-\------------------------------------------
Ab--7--6m-4m--3-\------------------------------------------
Eb---------------------------------------------------------


Verse 2
eb---------------------------------------------------------
Bb---------------------------------------------------------
Gb---------------------------------------------------------
Db--3----------------------------------------------3-----2-
Ab--3-3m-3m-3m-3m-3m-3m-3m-3m-3m-3m-3m-3m-3m-3m-3m-3--2m-2-
Eb--1-1m-1m-1m-1m-1m-1m-1m-1m-1m-1m-1m-1m-1m-1m-1m-1--0m-0-

(continued)
e----------------------------------------------------------
B----------------------------------------------------------
G----------------------------------------------------------
D-----3-----4-----3----------------------------------------
A--3m-3--4m-4--3m-3----------------------------------------
E--1m-1--2m-2--1m-1----------------------------------------


Verse 3
eb---------------------------------------------------------
Bb---------------------------------------------------------
Gb---------------------------------------------------------
Db--3---------3---------3-----6-----2-----4-----3----------
Ab--3------3m-3------3m-3--6m-6--2m-2--4m-4--3m-3----------
Eb--1------1m-1------1m-1--4m-4--0m-0--2m-2--1m-1----------


Intro
Verse 1
Chorus
Verse 2
Verse 3
Chorus
Verse 1
Verse 2
Chorus
Verse 3
Verse 1
Comments