Anthrax - Fueled Chords & Tabs

 

Fueled Chords & Tabs

Anthrax Chords & Tabs

Version: 1 Type: Tab 0 ratings
1 star 2 stars 3 stars 4 stars 5 stars
comments

Fueled Tab

   
Notation:

10b12      = pick the 10th fret, then bend to the 12th fret.
10b12r10   = pick the 10th fret, then bend to the 12th fret,
             then release to the 10th fret.
[10]12r10  = bend to the 12th fret from the 10th fret, pick,
             then release to the 10th fret.
10b12 [14] = pick the 14th fret while holding the previous bend.

10b15*     = tremolo bar bend, from the 10th fret to the 15th fret.
7d2*       = tremolo bar dive, from the 7th fret to the 2nd fret. 
12~*       = tremolo bar vibrato.

x   =  mute with fret-hand
*   =  palm mute
X\\ =  pick slide
h   =  hammer-on
p   =  pull-off
~   =  vibrato
t   =  finger tap
/   =  slide up
\   =  slide down
h   =  natural harmonics
a   =  artificial harmonics
(9) =  ghost note
tm  =  trem picking
tr  =  trill



Tuning: Drop D

Riff 1
e|-------------------------|
B|-------------------------|
G|-------------------------|
D|-------------------------|
A|--3-0--3-3-0-3-3-0-3-0-0-|
D|--3-0--3-3-0-3-3-0-3-0-0-|


Riff 2
e|------------------|
B|------------------|
G|------------------|
D|------------------|
A|-3-0-3-3-0-3-3-0--|
D|-3-0-3-3-0-3-3-0--|
   * * * * * * * *    *
   "I'm out to mix..."
  

Riff 3
e|-------------------------|
B|-------------------------|
G|-------------------------|
D|-------------------------|
A|--3-0--3-3-0-3-3-0-3-0-0-|
D|--3-0--3-3-0-3-3-0-3-0-0-|
  "I'm on the money..."
e|-----------------------------|
B|-----------------------------|
G|-----------------------------|
D|-----------------------------|
A|--3-0--3-3-0-3-3-0-3-0-3-0-0-|
D|--3-0--3-3-0-3-3-0-3-0-3-0-0-|
  "...here I come..."

Ending to riff 3
e|-----------------------------------|
B|-----------------------------------|
G|-----------------------------------|
D|-----------------------------------|
A|-x-x-x-x---------------------------|
D|-x-x-x-x-0-0-0-0-0-0-0-0-0-0-0-0-0-|
           * * * * * * * * * * * * *


Play Riff 2    "I like to forget..."
Play Riff 3    "I'm on the money..."


Riff 4
e|--------------------------------------|
B|--------------------------------------|
G|--------------------------------------|
D|--0-----0-/3-----3\-0-----0-/3-----3\-|
A|--0-----0-/3-----3\-0-----0-/3-----3\-|
D|--0-----0-/3-----3\-0-----0-/3-----3\-|
   "Kickstart and turn me over..."
e|---------------------------------|
B|---------------------------------|
G|---------------------------------|
D|--0-----0-/3-----3-/5-----5\-0---|
A|--0-----0-/3-----3-/5-----5\-0---|
D|--0-----0-/3-----3-/5-----5\-0---|
   "Hungry and I'll take the best..."


Riff 5
e|------------------------------------------|
B|------------------------------------------|
G|-5-5--5-5--5-5------5-5--5-5--5-5---------|
D|-7-7--7-7--7-7------7-7--7-7--7-7---xxxxx-|
A|-5-5--5-5--5-5------5-5--5-5--5-5---xxxxx-|
D|-0-0--0-0--0-0------0-0--0-0--0-0---xxxxx-|

e|---------------------------------|
B|---------------------------------|
G|-5-5--5-5--5-5------5-5--5-5--5--|
D|-7-7--7-7--7-7------7-7--7-7--7--|
A|-5-5--5-5--5-5------5-5--5-5--5--|
D|-0-0--0-0--0-0------0-0--0-0--0--|


Play Riff 2    "It's like a war inside me..."
Play Riff 3    "I'm on the money..."
Play Riff 4    Play last bar 2x

[ Tab from: http://www.guitartabs.cc/tabs/a/anthrax/fueled_tab.html ]
Riff 5a                  x4
e|------------------------|
B|------------------------|
G|-5-5--5-5--5-5----------|
D|-7-7--7-7--7-7----------|
A|-5-5--5-5--5-5----------|
D|-0-0--0-0--0-0--/5b6r5~-|
                           

Riff 6
e|------------------------------|
B|------------------------------|
G|------------------------------|
D|------------------------------|
A|--3-0--3-3-0-3-3-0-3-0--------|
D|--3-0--3-3-0-3-3-0-3-0-5b6-5~-|
    * *  * * * * * * * * *   *
  "I don't know why..."
e|-------------------------|
B|-------------------------|
G|-------------------------|
D|-------------------------|
A|--3-0--3-3-0-3-3-0-3-0-0-|
D|--3-0--3-3-0-3-3-0-3-0-0-|
    * *  * * * * * * * * * 
  "When I've done all I can do..."


Riff 6a
e|------------------------------|
B|------------------------------|
G|------------------------------|
D|------------------------------|
A|--3-0--3-3-0-3-3-0-3-0--------|
D|--3-0--3-3-0-3-3-0-3-0-5b6-5~-|
   "And if you make the mistake..."
e|------------------------------------|
B|------------------------------------|
G|------------------------------------|
D|--------------------------------5---|
A|--3-0--3-3-0-3-3-0-3-0-0--x-x-x-h-x-|
D|--3-0--3-3-0-3-3-0-3-0-0--x-x-x---x-|
   "...me, you'll just give..."


Lead into next section:
e|---------------------------|
B|---------------------------|
G|---------------------------|
D|---------------------------|
A|---------------------------|
D|-0-0-0-0-0-0-0-0-0-0-0-0-0-|
   * * * * * * * * * * * * *
  "1,2,3,4,1,2,3,4..." 

Play Riff 4   "Kickstart and turn me over..."

Lead into next section:
e|----------------------------------|
B|----------------------------------|
G|----------------------------------|
D|----------------------------------|
A|-------------------------------8~-|
D|-0-0-0-0-0-0-0-0-0-0-0-0-0-...----|
   * * * * * * * * * * * * *
   "1,2,3,4, I can't close..."

Riff 7
e|--------------------------------------|
B|--------------------------------------|
G|--------------------------------------|
D|--------------------------------------|
A|-3p0--3p0--3p0-----3p0--3p0--3p0------|
D|-3p0--3p0--3p0--4--3p0--3p0--3p0--2.5-| -> middle of 2nd and 3rd fret
                  h                  h
  "It's just the nature..."
e|---------------------------------------|
B|---------------------------------------|
G|---------------------------------------|
D|---------------------------------------|
A|-3p0--3p0--3p0-----3p0--3p0--3p0-------|
D|-3p0--3p0--3p0--4--3p0--3p0--3p0--//\\-|
                  h
  "It's just the nature..."


Ending:                   x4
e|-------------------------|-----------|
B|-------------------------|-----------|
G|-------------------------|-----------|
D|-------------------------|-----------|
A|--3-0--3-3-0-3-3-0-3-0-0-|-x-x-x-x-x-|
D|--3-0--3-3-0-3-3-0-3-0-0-|-x-x-x-x-x-|
    * *  * * * * * * * * *
  "You wanna be me..."
                                     x4
e|------------------------------------|
B|------------------------------------|
G|------------------------------------|
D|------------------------------------|
A|--3-0--3-3-0-3-3-0-3-0-0--x-x-x-x-x-|
D|--3-0--3-3-0-3-3-0-3-0-0--x-x-x-x-x-|
  "It's just the nature..."

                           x2
e|--------------------------|
B|--------------------------|
G|--------------------------|
D|--------------------------|
A|--3-0--3-3-0-3-3-0-3-0-0--|
D|--3-0--3-3-0-3-3-0-3-0-0--|
Comments