Anthrax - Cupajoe Chords & Tabs

 

Cupajoe Chords & Tabs

Anthrax Chords & Tabs

Version: 1 Type: Tab

Cupajoe Tab

ANTHRAX
CUPAJOE


eb------------------------3b----|
Bb-----------------2b-----3b----|
Gb-----------------2b-----------|
Db------------------------------|
Ab-1---1---1---1-------1--------|
D--1---1---1---1-------1--------|


eb--------------------3b----|
Bb-------------2b-----3b----|
Gb-------------2b-----------|
Db--------------------------|
Ab-1---1---1-------1--------|
D--1---1---1-------1--------|

eb--------------------3b----|
Bb-------------2b-----3b----|
Gb-------------2b-----------|
Db--------------------------|
Ab-1---1---1-------1--------|
D--1---1---1-------1--------|


eb---------------|
Bb---------------|
Gb---------------|
Db---------------|
Ab-1---1---1-4-1-|
D--1---1---1-4-1-|


eb----------------|
Bb----------------|
Gb----------------|
Db----------------|
Ab-1---1---1--4-1-|
D--1---1---1--4-1-|

eb---------------------------------|
Bb---------------------------------|
Gb---------------------------------|
Db---------------------------------|
Ab-1--1--1--1--1--1--1-1-1-1-1-1-1-|
D--1--1--1--1--1--1--1-1-1-1-1-1-1-|
[ Tab from: http://www.guitartabs.cc/tabs/a/anthrax/cupajoe_tab.html ]
eb:--------------------------------------------|
Bb:--------------------------------------------|
Gb:--------------------------------------------|
Db:--------------------------------------------|
Ab:-1-1-1-1-1-1-1-1-1-1-1-1-1-1-1-1-1-1-1-1--1-|
 D:-1-1-1-1-1-1-1-1-1-1-1-1-1-1-1-1-1-1-1-1--1-|

eb------------------------3b----|
Bb-----------------2b-----3b----|
Gb-----------------2b-----------|
Db------------------------------|
Ab-1---1---1---1-------1--------|
D--1---1---1---1-------1--------|


eb--------------------3b----|
Bb-------------2b-----3b----|
Gb-------------2b-----------|
Db--------------------------|
Ab-1---1---1-------1--------|
D--1---1---1-------1--------|

eb--------------------3b----|
Bb-------------2b-----3b----|
Gb-------------2b-----------|
Db--------------------------|
Ab-1---1---1-------1--------|
D--1---1---1-------1--------|


eb---------------|
Bb---------------|
Gb---------------|
Db---------------|
Ab-1---1---1-4-1-|
D--1---1---1-4-1-|


eb----------------|
Bb----------------|
Gb----------------|
Db----------------|
Ab-1---1---1--4-1-|
D--1---1---1--4-1-|

eb---------------------------------|
Bb---------------------------------|
Gb---------------------------------|
Db---------------------------------|
Ab-1--1--1--1--1--1--1-1-1-1-1-1-1-|
D--1--1--1--1--1--1--1-1-1-1-1-1-1-|

eb--------------------------------------------|
Bb--------------------------------------------|
Gb--------------------------------------------|
Db--------------------------------------------|
Ab-1-1-1-1-1-1-1-1-1-1-1-1-1-1-1-1-1-1-1-1--1-|
D--1-1-1-1-1-1-1-1-1-1-1-1-1-1-1-1-1-1-1-1--1-|


ENJOY!!!