Anthrax - Caught In A Mosh Chords & Tabs

 

Caught In A Mosh Chords & Tabs

Anthrax Chords & Tabs

Version: 1 Type: Bass Tab 0 ratings
1 star 2 stars 3 stars 4 stars 5 stars
comments

Caught In A Mosh Bass Tab

Standard Tuning

intro/chorus(after guitar part)
G||-------------------------------------------------------------||
D||o-----------------------------------------------------------o||
A||o-----------------------------------------------------------o||
E||--0-0-1-0-0-3-0-0-4-0-5-0-6-7-8-0-0-1-0-0-3-0-0-4-0-5-8-7-6--||

verse
G||-------------------------------------------------------||
D||o-----------------------------------------------------o||
A||o-------------------------8-7-----6-7-----------------o||
E||--0-0-0-0-0-0-0-0-7-8-0-0-----0-0-----0-0-0-0-0-0-0-0--||

prechorus
G||-----------------------------------------------------||
D||o---------------------------------------------------o||
A||o---------------------------------------------------o||
E||--3-2-0-2-0-2-0-2-0-2-0-3-3-2-0-2-0-2-0-2-0-2-0-2-0--||

G||---------------------------------------------------||
D||---------------------------------------------------||
A||-5-5-5-5-5-5-5-5-------------------3-3-3-3-3-3-3-3-||
E||-----------------1-1-1-1-1-1-1-1-1-----------------||
[ Tab from: http://www.guitartabs.cc/tabs/a/anthrax/caught_in_a_mosh_btab.html ]
bridge
G||-----------------------------------||
D||-----------------------------------||
A||-----------------------------------||
E||-0--3-0--3-0--3-0--0-0-0-0-0-0-0-0-||

G||---------------------------------------------------------------||
D||o-------------------------------------------------------------o||
A||o-----------------7\3-3-3-3-3-3-3-3---------------------------o||
E||--0-0-0-0-0-0-0-0-------------------2-2-2-2-2-2-2-2-3-3-3-5-7--||

                      solo
G||---------------||---------------------||---------------------------||
D||---------------||o-------------------o||o-------------------------o||
A||---------------||o-------------------o||o-------------------------o||
E||0-0-0-0-0-0-0-0||2-0-2-0-2-0-2-0-2-3-3||0-0-3-0-0-3-0-0-3-0-0-3-3-2||

G||-----------------------------------------------------------------------||
D||o---------------------------------------------------------------------o||
A||o-----------------5\3-------------------------------------------------o||
E||--0-0-0-0-0-0-0-0-----0-0-2-2-2-2-2-2-2-2-0-0-3-3-3-3-3-3-3-3-0-5-0-7--||

outro
G||-------------------------||
D||-------------------------||
A||---------------7-7-7-7---||
E||-0-3-0---6-7-8---------8-||
Comments