Anthrax - Bring The Noise Chords & Tabs

 

Bring The Noise Chords & Tabs

Anthrax Chords & Tabs

Version: 1 Type: Bass Tab 0 ratings
1 star 2 stars 3 stars 4 stars 5 stars
comments

Bring The Noise Bass Tab

Standard Tuning

G----------------|----------------|----------------|----------------|  x4
D----------------|----------------|----------------|----------------|
A-------1--------|-------1--------|-------1--------|-------1--------|
E---2-1---1----1-|-1-2-1---1----1-|-1-2-1---1----1-|-1-2-1---1----1-|

G-----------------|   x8
D-----------------|
A-----1---1-------|
E-3-3---3---1-1-2-|

(x2)
G--------------------|----------------|----------------|----------------|   
D--------------------|----------------|----------------|----------------|
A-----------1--------|-------1--------|-------1--------|-------2--------| 
E-~~~(12)/1---1----1-|-1-2-1---1----1-|-1-2-1---1----1-|-1-3-1---1-1--2-|
[ Tab from: http://www.guitartabs.cc/tabs/a/anthrax/bring_the_noise_btab.html ]
G------------------|------------------|   x4
D------------------|------------------|
A-----1---1--------|-----1---1--------|
E-3-3---3---2-11-2-|-3-3---3---2-11-2-|

G----------------|----------------|----------------|----------------|  x4
D----------------|----------------|----------------|----------------|
A-------1--------|-------1--------|-------1--------|-------2--------|
E-1-2-1---1----1-|-1-2-1---1----1-|-1-2-1---1----1-|-1-3-1---1-1--2-|

G-----------------|-----------------|	x4
D-----------------|-----------------|
A-----1---1-------|-----1---1-------|
E-3-3---3---1-1-2-|-3-3---3---1-1-2-|

G----------------|x8 G--------------|-----------------| x7
D----------------|	   D--------------|-----------------|
A---------1------|	   A-------1------|-------1---------|
E-1-1-2-3---1----|	   E-1-3-1---1-1--|-1-3-1---1-1--1--|
Comments